Song name
# A B C D E F G H I J K L M N O P Q R S T U V W X Y Z

Big Wreck - That Song tab

================================================================
                       That Song - Big Wreck
================================================================
                    As recorded by Big Wreck
             (From the 1997 In Loving Memory Of...)

Words and Music by Big Wreck
Tabbed by Tanner Streeter

Tuning is in Drop D/Half Step. 

I saw the other tab on here wasn't quite right, so I decided
to make my own. The bass pretty much goes right along with
the guitars. You can figure out the order yourself, just listen.

Legend
b = Bend
~ = Vibrato
\ or / = Slide

Intro/Verse

Gb--11----11----11--11--11--14---14--14--13----13--13--11--|
Db---------------------------------------------------------|
Ab---------------------------------------------------------|
Db---------------------------------------------------------|

Gb--11----11----11--11--11/--14---14--14--13----13--13-----|
Db---------------------------------------------------------|
Ab---------------------------------------------------------|
Db---------------------------------------------------------|

Gb---------------------------------------------------------|
Db--11----11----12--11--11--14---14--14--12----12--12--11--|
Ab---------------------------------------------------------|
Db---------------------------------------------------------|

Gb---------------------------------------------------------|
Db--11----11----12--11--11--14---14--14--12----12--12--12--|
Ab---------------------------------------------------------|
Db---------------------------------------------------------|

Pre-Chorus:

Gb---------------------|
Db---------------------|
Ab---------------------|
Db--7--7--7--7--7--7---|

Chorus:

Gb---------------------------------------------------------------|
Db---------------------------------------------------------------|
Ab---------4b-------------4\-----0---0~-----0---0~---------------|
Db--0~------------0~-----------------------------------7--7--7---|
                                                                  
Gb------------------------------------------------------------------------------|
Db------------------------------------------------------------------------------|
Ab--------------------------------------4b--------------------------------------|
Db--0--4--5--0--2--4--0--0--2--0--0--0------0--4--5--0--2--4--0--0--2--0--0--0--|
                    
Gb--------------------------------|
Db--------------------------------|
Ab---4\-----0---0~------0---0~----|
Db--------------------------------|

Post-Chorus 

Gb-----------------------------------------------------|
Db-----------------------------------------------------|
Ab-----------------------------------------------------|
Db--4----2~~~-----4----0~~~-----4----7~~~-----4----2~~~|

Bridge:

Gb-----------------------------------------------------|
Db-----6---4-----6~-----4-------6---4-----6~-----4-----|
Ab-----------------------------------------------------|
Db--0---------0--------------0---------0------------0--|

Gb----------------------------------------------------|
Db---6---4-----6~-----4--------6---4-----6~-----4-----|
Ab----------------------------------------------------|
Db----------0---------------0---------0---------------|

Gb----------------------------------------------------------------------|
Db-----6--4-----6~----4------6--4-----6~----4-------6--4-----6~----4----|
Ab--0--------0------------0--------0-----------0----------0-------------|
Db----------------------------------------------------------------------|

Gb--------------------------|
Db-----6--4-----6~----4-----|
Ab--0--------0--------------|
Db-----------------------0--|

Chorus 2:

Gb----------------------------------------------------------------|
Db----------------------------------------------------------------|
Ab--------4b-------------4\-----0---0~~~------0---0~~~------------|
Db--0~~~---------0------------------------------------------------|
                                                                  
Gb-----------------------------------------------------------------------------|
Db-----------------------------------------------------------------------------|
Ab------------------------4b------------------------4\----0---0--------0---0---|
Db--0-----2----4----6-----------0----2----4----6-------------------------------|

Post-Chorus 2 

Gb--------------------------------------------------------------------------------|
Db--------------------------------------------------------------------------------|
Ab--------------------------------------------------------------------------------|
Db-4----2----4----0----4----7----4----2----4----0----4----7----4----2----4----0---|
Tap to rate this tab
# A B C D E F G H I J K L M N O P Q R S T U V W X Y Z