Song name
# A B C D E F G H I J K L M N O P Q R S T U V W X Y Z

Big Wreck - Undersold tab

Author/Artist: Big Wreck
Title: Undersold
Album: The Pleasure and the Greed
By Taylor Laughlin
Email: laughlin_t@hotmail.com

this song is pretty hard, its going to take some time to get it pat down, wicked tune 
Big Wreck wrote wicked ass music and deserves to be tabbed by people. Lyrics at the bottom

have fun with it!


Tuning low to high:
D,A,D,A,A,D

-------0----------------------0-------------------------0---------------------|
-----2---2---2-0---0---0----2---2---2-0---0-----0-----2---2---2-0---0---0-----|
---3-------3-------0---0--3-------3-------0----0----3-------3-----------------|
-----------------0---0--0---------------0--0h2----3---------------3---3--3----|
------------------------------------------------------------------------------|
-0----------------------------------------------------------------------------|
acoustic riff

-----0----------|-------------|---------5-|-----------------------------------|
---2---2---2-0--|0------------|-----5-----|-----------------------------------|
-3-------3------|-------------|---5---5---|-----------------------------------|
---------------3|--2h3p2p0----|/5---------|-----------------------------------|
----------------|---------3p0-|-----------|-----------------------------------|
----------------|-------------|-----------|-----------------------------------|
1st end 2nd end

-------------------------------------------------|----------------------------|
-------------------------------------------------|----------------------------|
-10--9---0-2-3-2-0-2-3---------------------------|-10--9---0-2-3-2-0-2-3-2^---|
-------------------------------------------------|--------------------------0-|
-10--9---0-2-3-2-0-2-3---------------------------|-10--9---0-2-3-2-0-2-3----0-|
-------------------------------------------------|--------------------------0-|
"Oh would you ever want to bleed" (distorted) 2nd time add harmonic

------------------------------------------------------------------------------|
------------------------------------------------------------------------------|
------3/5---------------------------------------------------------------------|
---------------8---0---7--8---0---7--8---0---7--8-8--0-2-3----0-2-3--1---1-0--|
------3/5------8---0---7--8---0---7--8---0---7--8-8--0-2-3----0-2-3--1---1-0--|
---------------8---0---7--8---0---7--8---0---7--8-8--0-2-3----0-2-3--1---1-0--|
"Somehow..."

---------------------------------------3---3---3---3-----3---3----------------|
---------------------------------------3---3---3---3-----3---3----------------|
--3-5-7-5-3-5-------3-5-7-8-7-5-3p0-------------------------------------------|
--------------0--0------------------3----3-------3-----3---3---3/5------------|
--3-5-7-5-3-5-0--0--3-5-7-8-7-5-3p0-3----3-------3-----3---3---3/5------------|
--------------0--0------------------3----3-------3-----3---3---3/5------------|
Breakdown

------------------------------------------3---3---3---3----3---3--------------|
------------------------------------------3---3---3---3----3---3--------------|
----3-5-7-5-3-5--------3-5-7-8-7-5-3p0----------------------------------------|
--0-------------0--0--------------------3---3-------3----3---3---3/5----------|
--0-3-5-7-5-3-5-0--0---3-5-7-8-7-5-3p0--3---3-------3----3---3---3/5----------|
--0-------------0--0--------------------3---3-------3----3---3---3/5----------|
Tap to rate this tab
# A B C D E F G H I J K L M N O P Q R S T U V W X Y Z