Song name
# A B C D E F G H I J K L M N O P Q R S T U V W X Y Z

Big Wreck - Overemphasizing tab

#----------------------------------PLEASE NOTE---------------------------------#
#This file is the author's own work and represents their interpretation of the #
#song. You may only use this file for private study, scholarship, or research. #
#------------------------------------------------------------------------------#

Author/Artist: Big Wreck
Title: Overemphasizing
Album: In Loving Memory Of...
By Taylor Laughlin

not the whole song... but some..
K heres the tuning... same tuning as ladylike
from low to high -
D A D F A D (tune down half a step)

Its only some of the song.. I haven't really had time to figure the whole song.. but 
most of it. Solo is to hard lol, and chorus, look for the timings... HAVE FUN!!

use your fingers... not a pick for this part

rythym part

D-----0---------0---------0---------0-------|
A-------0---------0---------0---------0-----|
F---------0---------0---------0---------0---|
D-------------------------------------------|
A-------------------------------------------|
D-0-0--0-0--2-2--2-2--0-0--0-0--2-2--2-2----|


                                              -- do this 4 times then slide


D-------------------------------------------|
A-----0---0-----0---0-----0---0-----0---0---|
F-------6---------6---------6---------6-----|
D-------------------------------------------|
A-------------------------------------------|
D-5-5--5-5--5-5--5-5--5-5--5-5--5-5--5-5----|


Part with a slide

D-0~~~2~~~3~~~7~5---------------------------|
A-0~~~2~~~3~~~7~5---------------------------|
F-0~~~2~~~3~~~7~5---------------------------|
D-0~~~2~~~3~~~7~5---------------------------|
A-0~~~2~~~3~~~7~5---------------------------|
D-0~~~2~~~3~~~7~5---------------------------|

Chorus (i think its correct.. feel free to fool around listen for timings)


D- ----------~7~----~3~----~2~----0---------------|
A- ----------~7~----~3~----~2~----0---------------|
F- ----------~7~----~3~----~2~----0---------------|
D- ----------~7~----~3~----~2~----0---------------|
A- ----------~7~----~3~----~2~----0---------------|
D- ----------~7~----~3~----~2~----0---------------|
Tap to rate this tab
# A B C D E F G H I J K L M N O P Q R S T U V W X Y Z