Song name
# A B C D E F G H I J K L M N O P Q R S T U V W X Y Z

Bigbang - Early December tab

Ok, this is Early december by BigBang. Tuning on this one is a half step down


INTRO:
Guitar 1: 
Eb|-------------------------------------------------------------------|
Bb|--------------------------------------------(3)--------------------|
Gb|--------------------------------------------(0)--------------------|
Db|-0-2-4-4--4-----0-2-4-4--4-----0-2-4-4--2----0---------------------| x2
Ab|-2-2-2-2--2-----2-2-2-2--2-----2-2-2-2--0----2---------------------|
Eb|---------------------------------------------3---------------------|


VERSE 1:

This next section is with two guitars (on the studio recording).

Guitar 1:
Eb|---------------------------------------------------0----------------|
Bb|-----------------------------------------(3)-3-------3--------------|
Gb|-----------------------------------------(0)---0-------0------------| x2
Db|-0-2-4-4--4-----0-2-4-4--4--0-2-4-4--2----0------0------------------|
Ab|-2-2-2-2--2-----2-2-2-2--2--2-2-2-2--0----2-------------------------|
Eb|------------------------------------------3-------------------------|
   (with slight palm-muting on these chords)


Guitar 2:
Eb|-----------------|
Bb|-----------------|
Gb|-----------------| x8
Db|-4-4-4-4-4-4-4-4-|
Ab|-2-2-2-2-2-2-2-2-|
Eb|-----------------|
   pm.............. 


CHORUS:
(figure out strumming by yourself)
Guitar 1:
      D                G               Em7             Em7/F#
Eb|---2----------------3---------------------------------0----------------|
Bb|---3----------------0----------------3----------------3----------------|
Gb|---2----------------0----------------0----------------0----------------|
Db|---0----------------0----------------2----------------2----------------|x2
Ab|--------------------2----------------2----------------2----------------|
Eb|--------------------3----------------0----------------2----------------|


BRIDGE 1:
(or whatever you wanna call it)
Guitar 1:
Eb|-------------------------------------------------------------------|
Bb|--------------------------------------------(3)--------------------|
Gb|--------------------------------------------(0)--------------------|
Db|-0-2-4-4--4-----0-2-4-4--4-----0-2-4-4--2----0---------------------|x2
Ab|-2-2-2-2--2-----2-2-2-2--2-----2-2-2-2--0----2---------------------|
Eb|---------------------------------------------3---------------------|


VERSE 1:

Guitar 1:
Eb|---------------------------------------------------0----------------|
Bb|-----------------------------------------(3)-3-------3--------------|
Gb|-----------------------------------------(0)---0-------0------------| x2
Db|-0-2-4-4--4-----0-2-4-4--4--0-2-4-4--2----0------0-------0----------|
Ab|-2-2-2-2--2-----2-2-2-2--2--2-2-2-2--0----2-------------------------|
Eb|------------------------------------------3-------------------------|
   (with slight palm-muting on these chords)

Guitar 2:
Eb|-----------------|
Bb|-----------------|
Gb|-----------------| x8
Db|-4-4-4-4-4-4-4-4-|
Ab|-2-2-2-2-2-2-2-2-|
Eb|-----------------|
   pm.............. 


CHORUS:
Guitar 1:
      D                G               Em7             Em7/F#
Eb|---2----------------3---------------------------------0----------------|
Bb|---3----------------0----------------3----------------3----------------|
Gb|---2----------------0----------------0----------------0----------------|
Db|---0----------------0----------------2----------------2----------------|x2
Ab|--------------------2----------------2----------------2----------------|
Eb|--------------------3----------------0----------------2----------------|


BRIDGE 2:
Guitar 1:      
Eb|-------------------------------------------|
Bb|-------------------------------------------|  
Gb|-------------------------------------------|
Db|-------------------------------------------|----------------------------------------|
Ab|--5-5-5-5-5-5-5-5-7-7-7-7-7-7-7-7----------|-9-9-9-9-9-9-9-9-10-10-10-9-9-9-9-9-----|
Eb|--3-3-3-3-3-3-3-3-5-5-5-5-5-5-5-5----------|-7-7-7-7-7-7-7-7-7--7--7--7-7-7-7-7-----|

Guitar 1:     
Eb|-------------------------------------------|
Bb|-------------------------------------------|  
Gb|-------------------------------------------|
Db|-------------------------------------------|----------------------------------------|
Ab|--5-5-5-5-5-5-5-5-7-7-7-7-7-7-7-7----------|-2-2-2-2-2-2-2-2-2-2-2-2-2-2-2-2-2------|
Eb|--3-3-3-3-3-3-3-3-5-5-5-5-5-5-5-5----------|-0-0-0-0-0-0-0-0-0-0-0-0-0-0-0-0-0------|


VERSE 2:
Guitar 1:
Eb|---------------------------------------------------0----------------|
Bb|-----------------------------------------(3)-3-------3--------------|
Gb|-----------------------------------------(0)---0-------0------------| x2
Db|-0-2-4-4--4-----0-2-4-4--4--0-2-4-4--2----0------0------------------|
Ab|-2-2-2-2--2-----2-2-2-2--2--2-2-2-2--0----2-------------------------|
Eb|------------------------------------------3-------------------------|


Guitar solo section:
Guitar 1:
      D                G               Em7             Em7/F#
Eb|---2----------------3---------------------------------0----------------|
Bb|---3----------------0----------------3----------------3----------------|
Gb|---2----------------0----------------0----------------0----------------|
Db|---0----------------0----------------2----------------2----------------|x2
Ab|--------------------2----------------2----------------2----------------|
Eb|--------------------3----------------0----------------2----------------|

Eb|---------------------------------------------------0------------------|
Bb|-----------------------------------------(3)-3-------3----------------|
Gb|-----------------------------------------(0)---0-------0--------------| x2
Db|-0-2-4-4--4-----0-2-4-4--4--0-2-4-4--2----0------0--------------------|
Ab|-2-2-2-2--2-----2-2-2-2--2--2-2-2-2--0----2---------------------------|
Eb|------------------------------------------3---------------------------|
     
Eb|-------------------------------------------|
Bb|-------------------------------------------|  
Gb|-------------------------------------------|
Db|-------------------------------------------|----------------------------------------|
Ab|--5-5-5-5-5-5-5-5-7-7-7-7-7-7-7-7----------|-9-9-9-9-9-9-9-9-10-10-10-9-9-9-9-9-----|
Eb|--3-3-3-3-3-3-3-3-5-5-5-5-5-5-5-5----------|-7-7-7-7-7-7-7-7-7--7--7--7-7-7-7-7-----|
   
Eb|-------------------------------------------|
Bb|-------------------------------------------|  
Gb|-------------------------------------------|
Db|-------------------------------------------|----------------------------------------|
Ab|--5-5-5-5-5-5-5-5-7-7-7-7-7-7-7-7----------|-2-2-2-2-2-2-2-2-2-2-2-2-2-2-2-2-2------|
Eb|--3-3-3-3-3-3-3-3-5-5-5-5-5-5-5-5----------|-0-0-0-0-0-0-0-0-0-0-0-0-0-0-0-0-0------|

(I'll add guitar solo later)

OUTRO VERSE:
Guitar 1:
Eb|---------------------------------------------------0----------------|
Bb|-----------------------------------------(3)-3-------3--------------|
Gb|-----------------------------------------(0)---0-------0------------| x2
Db|-0-2-4-4--4-----0-2-4-4--4--0-2-4-4--2----0------0------------------|
Ab|-2-2-2-2--2-----2-2-2-2--2--2-2-2-2--0----2-------------------------|
Eb|------------------------------------------3-------------------------|



So, basically, the structure of the song is as follows:

INTRO    x2
VERSE 1  x2
CHORUS   x2
BRIDGE 1 x2
VERSE 1  x2
CHORUS   x2
BRIDGE 2 x2
VERSE 2  x2
GUITAR SOLO



Any corrections, just PM Giiii

rate, please :)
Tap to rate this tab
 
# A B C D E F G H I J K L M N O P Q R S T U V W X Y Z