Song name
# A B C D E F G H I J K L M N O P Q R S T U V W X Y Z

Bigbang - Lies tab

-------------------------------------------------------------------------------
			     LIES - BIGBANG
-------------------------------------------------------------------------------
Tabbed by:timo1

Standard tuning

This is just the piano bit tabbed out for guitar which just goes on throughout the whole song =]


e|--------10--------------------------------------------------------------------|
B|---12---------10----12----------10------12~---------10------------------------|
G|--------------------------12----------------------------12-----9~~------------|
D|---------------------------------------------------------------------12~~-----|
A|------------------------------------------------------------------------------|
E|------------------------------------------------------------------------------|

e|----------------------------10----------------------10------------------------|
B|----------------10------12------10--12---8--10--12------12-10--12-------------|
G|----9--10--12-----------------------------------------------------------------|
D|------------------------------------------------------------------------------|
A|------------------------------------------------------------------------------|
E|------------------------------------------------------------------------------|
Tap to rate this tab
 
# A B C D E F G H I J K L M N O P Q R S T U V W X Y Z