Song name
# A B C D E F G H I J K L M N O P Q R S T U V W X Y Z

Bigbang - La Song tab

My first tab. Believe it's quite correcto.



|-------------------------------------------------------------------|
|--12---------------------------------------------------------------|
|--12---12------11--------------------------------------------------|
|-------14------12---12--14-14--------------------------------------|
|--------------------14--15-15--------------------------------------|
|-------------------------------------------------------------------|



1. Guitar
|----------------------------------------------------------------------|
|--12------------------------------------------------------------------|
|--12--------12----------------------11--------------------------------|
|------------14----------------------12------------12-----14--------16-|
|--------------------------------------------------14-----15-----15-15-|
|----------------------------------------------------------------------|



2. Guitar
|-------------------------------------------------------------------|
|---12h15p12--------------------------------------------------------|
|------------14--12h14-----12--------12--14-14b15--14-----12--------|
|------------------------------12h14-------------------------12h14--|
|-------------------------------------------------------------------|
|-------------------------------------------------------------------|
Tap to rate this tab
 
# A B C D E F G H I J K L M N O P Q R S T U V W X Y Z