Song name
# A B C D E F G H I J K L M N O P Q R S T U V W X Y Z

Bigbang - Right Beside You chords

Highlighted       Show chord diagrams
Tabs based on live acoustic version from Radio Radio TV Sleep

Tuning (a whole step down) : D G C F a d

Chords are written relative to standard tuning; E A D G B e

Intro:

         C   |   Am   |  Em  |   Em  |   F   |

          F   |     G   |   G   |

d ---x---x---------------------|
A ---1---0--------3---3--------|
F ---2---0---------0-0-----0---|
C ---3---3------0---0-----0----|
G ---3---3----0h2-------0h2----|
D ---1---1---3-----------------|


Verse:

C       Am                 Em
Right beside you Im looking out
F                      F
Where snow will fall
          G                  G
Now we're good friends and all

d --------|
A --------|
F -----0--|
C ----0---|
G ---0h2--|
D --------|

C                         Am         
So have you been learning a lot
Em                    
Meeting lots of new 
      F                                 G
And lots of old youve been avoiding the cold

Bridge: 

 F               G
Now youre here 
                C      C/B   Am     Em
Youre sitting right beside someone who is 
    d ------------------------------|
    A ------------------------------|
    F ---------------0------0----2--|
    C -------------2------0-----2---|
    G -----------3------2------0----|
    D ------------------------------|

F
Waiting for a better day 
G
To put this in another way

          Am   Dsus2/A    D9/A     Dsus2/A
I sing a song for you                                X2
   d -----0------0---------0---------0-----------|
   A -----1------3---------5---------3-----------|
   F -----2------2---------7---------2--------0--|
   C -----2------4---------7---------4-------0---|
   G -----0------0---------0---------0-----0h2---|
   D --------------------------------------------|


Chorus:

 C               G          F         G
So please dont ask me how I feeling
 C              G                       F           G
I just need to take another look at your ceiling
 C         G                       F         G            
For some reason now it seems to be moving
 C              G              F
So please dont ask me how Im doing

      Am    Dsus2/A    D9/A     Dsus2/A    Am
d -----0------0---------0---------0--------0-----------|
A -----1------3---------5---------3--------1-----------|
F -----2------2---------7---------2--------2--------0--|
C -----2------4---------7---------4--------2-------0---|
G -----0------0---------0---------0--------0------0h2--|
D -----------------------------------------------------|

Verse:

Been to a city
A city for real
With hundred and twenty years with cosmopolit and feel 
And youre feeling good 
You got that its understood
Youve been crossing long bridges and walking steep hills
You got yourself a groove with excellent fills
And stories told but now youre getting kind of old

Bridge:

Cause now youre here
Youre sitting right beside someone who is
Waiting for a better day 
To put this in another way
And sing a song for you
I sing a song for you

Chorus:

Please dont ask me how I feeling
I just need to take another look at your ceiling
For some reason now it seems to be moving
So please dont ask me how Im doing

F  |   F   |   G   |  Gsus2  |

Well please dont ask me how I feeling
I just need to take another look at your ceiling
For some reason now it seems to be moving
So please dont ask me how Im doing

F   |   C   |
Tap to rate this tab
# A B C D E F G H I J K L M N O P Q R S T U V W X Y Z