Song name
# A B C D E F G H I J K L M N O P Q R S T U V W X Y Z

Bigbang - Something Special tab

Something Special by Bigbang

Picked out by ear, but pretty sure its right. 

Standard Tuning

Solo:

E |---------------------------------------------------------------------|
B |---------------------------------------------------------------------|
G |---------------------------------------------------------------------|
D |--33-33-333-3^-3-3^-3-----------1111---------------------------------|
A |-----------------------3-1----3------3-1-----1^----------------------|
E |---------------------------3-------------4-1-------------------------|


E |---------------------------------------------------------------------|
B |---------------------------------------------------------------------|
G |---------------------------------------------------------------------|
D |--33-33-333-3^-3-3^-3---------------------3---------------3----------|
A |----------------------3-1-3---1111-3-1-3^---3-1-3-1----1h3-----------|
E |----------------------------3-----------------------3----------------|
Tap to rate this tab
 
# A B C D E F G H I J K L M N O P Q R S T U V W X Y Z