Guitaretab - guitar tabs
Song name
# A B C D E F G H I J K L M N O P Q R S T U V W X Y Z

Bigbang - Tell Me Goodbye tab

Tell Me Goodbye - Bigbang       

chords 
     Cm    Bb     Ab    F#
e-----3-----1-----4-----1-----|
B-----4-----1-----4-----1-----|
G-----5-----3-----5-----1-----|
D-----5-----3-----6-----3-----|
A-----3-----1-----6-----3-----|
E-----3-----1-----4-----1-----|

      B     Db    F
e-----2-----4-----1-----------|
B-----4-----6-----1-----------|
G-----4-----6-----2-----------|
D-----4-----6-----3-----------|
A-----2-----4-----3-----------|
E-----2-----4-----1-----------|


riff
  Cm              Bb           Ab         F#
e-----------------------------------------------------------------|
B-------------3-4-3--------1-3-1----------------------------------|
G----5------5----------0-3----------1-0---------------------------|
D---------5-----------------------------3-------------------------|
A-------3---------------------------------3-----------------------|
E------3----------------------------------------------------------|

Cm                Bb           Ab         F#
e------------------------------------1----------------------------|
B-------------3-4-3--------1-3-1-------4-3------------------------|
G----5------5----------0-3-----------------1-0--------------------|
D---------5-------------------------------------------------------|
A-------3--------------------------------------3------------------|
E------3----------------------------------------------------------|



into
Cm Bb Ab F#

Cm               Bb
     Letting you go...(here's somebody...)
                    Ab                    
     Letting you go...(here's somebody...)
F#                   Cm
     Yo I got this, yeah
still thinking about this thing a lot
Bb
you got me shaken up
(Please tell me there's a way)
Ab                                              F#
And it got my head just spinnin' round round round round
(Please tell me there's a way)
                Cm
Don't wanna take a fall
It's best to break it up
                 Bb
It's gonna be better for you, move on
(Please tell me there's a way)
             Ab
Uh huh we break it break it
Or thought we make it make it
F#
And now we cover it up

Verse
       Cm                          Bb
Girl I swear kimi no koto wo ichibyou demo
       Ab                 F#
kanashimasenai yakusoku
        Cm                   Bb
mamoru tame ni wa mo moukoreshika
    Ab                      F#
erabu michi wa nai kara

         B                               Db
Baby aishita bun dake kizutsuketeshimau
                   B                           F               Cm
and I've got nothing, nothing to say,   Oo, Hooo
[ Tab from: http://www.guitaretab.com/b/bigbang/247723.html ]
                   Bb                       Ab
Tell me goodbye, tell me goodbye
        F#              Cm
dakishimeta te wo
                    Bb                       Ab  
Tell me goodbye, tell me goodbye
         F#
hanasou,   
Cm                    Bb                 Ab               F#               Cm
boku wo wasureru koto ni jiyuu ni naru nara Baby

                    Bb                       Ab             F#
Tell me goodbye, tell me goodbye

             Cm                                  Bb
Girl you know kimi ga egao wo naku shitaku hodo
         Ab                             F#
boku wa jibun mo semeru yo

         Cm                           Bb
nego semeru kotoba mo hikari sae mo
       Ab                        F#
nanimokamo miushinau

        B                                Db
Baby kono kuchibiru ga hanareta shunkan
                     B                              F           Cm
I'll never find better, better than you,  Oo  Hoo

                   Bb                        Ab
Tell me goodbye, tell me goodbye
       F#               Cm
dakishimeta te wo
                    Bb                       Ab
Tell me goodbye, tell me goodbye
        F#           
hanasou  
Cm               Bb                  Ab                 F#                  Cm
soba ni iru koto dake ga yasashisa janai to Baby
                    Bb                       Ab             
Tell me goodbye, tell me goodbye
                  F#
Yo and it's so, so
Cm
Sad it just ain't happening
Wish it could be better
Bb
Sorry to scrapping
But I just can't let ya
Ab
Be less than happy
I said look at me
F#
I couldn't live with myself seeing you lacking
Cm
The things you deserve
Baby you was a part?
Bb
Must believe that it hurts
that lead this world
Ab
I feel the aching through my body
                                F#
it just takes a bigger part of me
to be let you go
I wish that weren't so...

Cm               Bb                      Ab      F#
kimi no koe setsunaku fade away...away-ay-ay-ay
Cm             Bb                    Ab      F#
kaze ni kakikesareteyuku stay...stay-ay-ay-ay

Cm               Bb              Ab                     F#
kore ijou wa I can't take it, sono namida don't
           Cm
cry for me
                      Bb                      Ab      F#                 Cm
kimi no tame never look back again,  Eh eh eh eh,  Oh

                   Bb                        Ab
Tell me goodbye, tell me goodbye
       F#               Cm
dakishimeta te wo
                    Bb                       Ab
Tell me goodbye, tell me goodbye
         F#            
hanasou  
Cm                Bb                 Ab                 F#            Cm
soba ni iru koto dake ga yasashisa janai to Baby
                   Bb                        Ab            
Tell me goodbye, tell me goodbye
F#                      Cm
Tell me goodbye

Bb Ab F# 
Cm Bb Ab F# Cm
Related for Tell Me Goodbye tab
×
Best way to learn
"Tell Me Goodbye"