Bigbang - Lies tab

BIGBANG - Lies

e----------------------------------------------------------------|
B-----11----14------11-------------------------------------------|
G-------------13------11-----13-----15----13-11---------------11-|
D----------------------------------------------13--------13-15---|
A----------------------------------------------------------------|
E----------------------------------------------------------------|

e----------------------------------------------------------------|
B---------11----14-------11-----------------14-------------------|
G-13---------------13------11------13----15----------15-13-15----|
D----------------------------------------------------------------|
A----------------------------------------------------------------|
E----------------------------------------------------------------|
Tap to rate this tab
 
# A B C D E F G H I J K L M N O P Q R S T U V W X Y Z