Bigbang - Girl In Oslo tab

Artist:  BigBang
Song:    Girl in Oslo
Album:   Something special 
Tabber:  Stian Kvalsund
         stian_rock@hotmail.com

inro:
E---------------------------------------------|
B-----3-3-3--5----3--3-5--3-5-3--3------------|
G--0--3-3-3--5----3--3-5--3-5-3--3------------|
D--0--3-3-3--5----3--3-5--3-5-3--3------------|
A---------------------------------------------|
E----------------------------------1-2-3------|

                                            5x
E---------------------------------------------|
B--3-3-3-3--5-3--3-5----3-5-3--3--------------|
G--3-3-3-3--5-3--3-5----3-5-3--3-------0------|
D--3-3-3-3--5-3--3-5----3-5-3--3-------0------|
A---------------------------------------------|
E--------------------------------1-2-3--------|

Funkpart:
                                                    
E------------------------------------|-------------------------------|
B--3-x-x-3-x-x-3-x-x-3-x-x-5-5-x-x-3-|-3-3-3-x-x-x-3-x-x-5-3---------|
G--3-x-x-3-x-x-3-x-x-3-x-x-5-5-x-x-3-|-3-3-3-x-x-x-3-x-x-5-3-0-------|
D--3-x-x-3-x-x-3-x-x-3-x-x-5-5-x-x-3-|-3-3-3-x-x-x-3-x-x-5-3-0-------|
A------------------------------------|-------------------------------|
E------------------------------------|-------------------------1-2-3-|
repitate this riff trouht the song


solo:
E-----------------------------------------------------------------------|
B-----------------------------------------------------------------------|
G----------------------------------3-5-5-3--5(7)--12--------------------|
D-----5------5-----5-----5--3~5-----------5----------12--10-------------|
A--3~5---3~5---3~5---3~5------------------------------------10----------|
E-----------------------------------------------------------------------|

Enjoy:D
Tap to rate this tab
 
# A B C D E F G H I J K L M N O P Q R S T U V W X Y Z