Song name
# A B C D E F G H I J K L M N O P Q R S T U V W X Y Z

Bigbang - Like Americans Do tab

Capo: 7th fret

e|------2---2---3---2-------0-----2---2---3---5---3---2-------0---------|
b|------0---0---0---0----3--------0---0---0---0---0---0---3-------------|
g|------4---4---4---4----4--------4---4---4---4---4---4---4-------------|
d|--4--------------------------4----------------------------------------|
a|----------------------------------------------------------------------|
e|----------------------------------------------------------------------|

...... If your heart breaks, tear it apart. If your mind fails, give it a start

e|---2--2--2--2---0--0--0--0---2--2--3--2---0--0------|
b|---0--0--0--0---0--0--0--0---0--0--0--0---0--0------|
g|---4--4--4--4---4--4--4--4---4--4--4--4---4--4------|
d|---5--5--5--5---2--2--2--2---5--5--5--5---2--2------|
a|----------------------------------------------------|
e|----------------------------------------------------|

......everything you need, underneath..........................Like americans do.

Then start over. You can also play with a G chord and an Em on the "everything you need..." part.
Tap to rate this tab
 
# A B C D E F G H I J K L M N O P Q R S T U V W X Y Z