Song name
# A B C D E F G H I J K L M N O P Q R S T U V W X Y Z

Bigbang - Cant Find My Way Home tab

Bigbangs version of Steve Winwoods song Can't Find My Way home from their live 
album Radio Radio TV Sleep.


Intro
e|---------3p2-----|---------5-------|-----------------|-----------------|
B|-------3-----3---|-------3---3---3-|-------3---3-----|-------3---3-----|
G|-----0---------0-|-----0-------0---|-------0---0-----|-------2---2-----|
D|-----------------|-----------------|-----0-----------|-----0-----------|
A|-2h3-------------|-2---------------|-1------------/3-|-0---------------|
D|-----------------|-----------------|-----------------|-------------0-2-|

e|-----------------|-----------------|-----------------|-----------------|
B|--------0h1----1-|-1/3---3--3------|-------3---3-----|----------3----3-|
G|------2-2----2-2-|-2/4---4--4------|-------2---2-----|-0h2------2--0-0-|
D|----3------------|-3/5-------------|-----0--------3--|----------3--x-x-|
A|-----------------|-x/x-------------|-----------------|-----------------|
D|-3---------------|-3/5--5----3/5\3-|-0---------------|------0----------|


Verse 1
e|-----------------|-----------------|-----------------|-----------------|
B|-------3---3---3-|-------3---3---3-|-------3---3---3-|-------3--3------|
G|-------0---------|-------0---------|-------0---------|-------2---------|
D|-----0-----------|-----0-----------|-----0-----------|-----0-----------|
A|-3-----------3---|-2-----------2---|-1-----------1---|-0---------------|
D|-----------------|-----------------|-----------------|-------------0-2-|

e|-----------------|-----------------|-----------------|-----------------|
B|-------1---1-----|-------3---3-----|-------3---3-----|----------3------|
G|-------2-------2-|-------4-------4-|-------2---2-----|-0h2------2------|
D|-----3-------3---|-----5-------5---|-----0--------3--|----------3------|
A|-----------------|-----------------|-----------------|-------------0-2-|
D|-3---------------|-5---------------|-0---------------|------0----------|

e|-----------------|-----------------|-----------------|-----------------|
B|-------3---3---3-|-------3---3---3-|-------3---3---3-|-------3--3------|
G|-------0---------|-------0---------|-------0---------|-------2---------|
D|-----0-----------|-----0-----------|-----0-----------|-----0-----------|
A|-3-----------3---|-2-----------2---|-1-----------1---|-0---------------|
D|-----------------|-----------------|-----------------|-------------0-2-|

e|-----------------|-----------------|-----------------|-----------------|
B|-------1---1-----|-------3---3-----|-------3---3-----|----------3----3-|
G|-------2-------2-|-------4-------4-|-------2---2-----|-0h2------2--0-0-|
D|-----3-------3---|-----5-------5---|-----0--------3--|----------3--x-x-|
A|-----------------|-----------------|-----------------|-----------------|
D|-3---------------|-5---------------|-0---------------|------0----------|


Intro 2
e|---------3p2-----|---------5-------|-----------------|-----------------|
B|-------3-----3---|-------3---3---3-|-------3---3-----|-------3---3-----|
G|-----0---------0-|-----0-------0---|-------0---0-----|-------2---2-----|
D|-----------------|-----------------|-----0-----------|-----0-----------|
A|-2h3-------------|-2---------------|-1------------/3-|-0---------------|
D|-----------------|-----------------|-----------------|-------------0-2-|

e|-----------------|-----------------|-----------------|-----------------|
B|--------0h1----1-|-1/3---3--3------|-------3---3-----|----------3----3-|
G|------2-2----2-2-|-2/4---4--4------|-------2---2-----|-0h2------2--0-0-|
D|----3------------|-3/5-------------|-----0--------3--|----------3--x-x-|
A|-----------------|-x/x-------------|-----------------|-----------------|
D|-3---------------|-3/5--5----3/5\3-|-0---------------|------0----------|


Verse 2
e|-----------------|-----------------|-----------------|-----------------|
B|-------3---3---3-|-------3---3---3-|-------3---3---3-|-------3--3------|
G|-------0---------|-------0---------|-------0---------|-------2---------|
D|-----0-----------|-----0-----------|-----0-----------|-----0-----------|
A|-3-----------3---|-2-----------2---|-1-----------1---|-0---------------|
D|-----------------|-----------------|-----------------|-------------0-2-|

e|-----------------|-----------------|-----------------|-----------------|
B|-------1---1-----|-------3---3-----|-------3---3-----|----------3------|
G|-------2-------2-|-------4-------4-|-------2---2-----|-0h2------2------|
D|-----3-------3---|-----5-------5---|-----0--------3--|----------3------|
A|-----------------|-----------------|-----------------|-------------0-2-|
D|-3---------------|-5---------------|-0---------------|------0----------|

e|-----------------|-----------------|-----------------|-----------------|
B|-------3---3---3-|-------3---3---3-|-------3---3---3-|-------3--3------|
G|-------0---------|-------0---------|-------0---------|-------2---------|
D|-----0-----------|-----0-----------|-----0-----------|-----0-----------|
A|-3-----------3---|-2-----------2---|-1-----------1---|-0---------------|
D|-----------------|-----------------|-----------------|-------------0-2-|

e|-----------------|-----------------|-----------------|-----------------|
B|-------1---1-----|-------3---3-----|-------3---3-----|----------3----3-|
G|-------2-------2-|-------4-------4-|-------2---2-----|-0h2------2--0-0-|
D|-----3-------3---|-----5-------5---|-----0--------3--|----------3--x-x-|
A|-----------------|-----------------|-----------------|-----------------|
D|-3---------------|-5---------------|-0---------------|------0----------|


Bridge
e|-----------------|-----------------|-----------------|-----------------|
B|-------0---------|-------0---------|--------2--------|-3---------3---3-|
G|-------0---------|-------0---------|--------2--------|-2---------------|
D|-----0-----0---0-|-----0-----0---0-|-------------2---|-------2---------|
A|-2-----------2---|-2-----------2---|-0---------------|-------------0---|
D|-----------------|-----------------|-----------------|-----------------|

e|-----------------|-----------------|-----------------|-----------------|
B|-------3---------|-----3-----3-----|-------0---0-----|-------0---0-----|
G|-------0-----0h2-|-----2---2-2-2---|-------0---0-----|-------0---0-----|
D|-----------------|-----------0-----|-------------0---|-------------0---|
A|-----------------|-----------------|-----------------|-----------------|
D|-0---------------|-0---------------|-2---------------|-2---------------|

e|-----------------|-----------------|-----------------|-----------------|
B|-----------------|-----------------|-3---------------|-(3)-------------|
G|-------0-----0---|-----------------|-2---------------|-(2)-------------|
D|-------0---------|-----------------|-0---------------|-(0)-------------|
A|-----------------|-----------------|-0---------------|-(0)-------------|
D|-5---------------|-4-------2-------|-0---------------|-(0)-------------|


Intro 3
e|---------3p2-----|---------5-------|-----------------|-----------------|
B|-------3-----3---|-------3---3---3-|-------3---3-----|-------3---3-----|
G|-----0---------0-|-----0-------0---|-------0---0-----|-------2---2-----|
D|-----------------|-----------------|-----0-----------|-----0-----------|
A|-3---------------|-2---------------|-1------------/3-|-0---------------|
D|-----------------|-----------------|-----------------|-------------0-2-|

e|-----------------|-----------------|-----------------|-----------------|
B|--------0h1p0-0h1|-1/3---3--3------|-------3---3-----|----------3----3-|
G|------2-2-----2--|-2/4---4--4------|-------2---2-----|-0h2------2--0-0-|
D|----3------------|-3/5-------------|-----0--------3--|----------3--x-x-|
A|-----------------|-x/x-------------|-----------------|-----------------|
D|-3---------------|-3/5--5----3/5\3-|-0---------------|------0----------|


Verse 3
e|-----------------|-----------------|-----------------|-----------------|
B|-------3---3---3-|-------3---3---3-|-------3---3---3-|-------3--3------|
G|-------0---------|-------0---------|-------0---------|-------2---------|
D|-----0-----------|-----0-----------|-----0-----------|-----0-----------|
A|-3-----------3---|-2-----------2---|-1-----------1---|-0---------------|
D|-----------------|-----------------|-----------------|-------------0-2-|

e|-----------------|-----------------|-----------------|-----------------|
B|-------1---1-----|-------3---3-----|-------3---3-----|----------3------|
G|-------2-------2-|-------4-------4-|-------2---2-----|-0h2------2------|
D|-----3-------3---|-----5-------5---|-----0--------3--|----------3------|
A|-----------------|-----------------|-----------------|-------------0-2-|
D|-3---------------|-5---------------|-0---------------|------0----------|

e|-----------------|-----------------|-----------------|-----------------|
B|-------3---3---3-|-------3---3---3-|-------3---3---3-|-------3--3------|
G|-------0---------|-------0---------|-------0---------|-------2---------|
D|-----0-----------|-----0-----------|-----0-----------|-----0-----------|
A|-3-----------3---|-2-----------2---|-1-----------1---|-0---------------|
D|-----------------|-----------------|-----------------|-------------0-2-|

e|-----------------|-----------------|-----------------|-----------------|
B|-------1---1-----|-------3---3-----|-------3---3-----|----------3----3-|
G|-------2-------2-|-------4-------4-|-------2---2-----|-0h2------2--0-0-|
D|-----3-------3---|-----5-------5---|-----0--------3--|----------3--x-x-|
A|-----------------|-----------------|-----------------|-----------------|
D|-3---------------|-5---------------|-0---------------|------0----------|


Bridge/Outro
e|-----------------|-----------------|-----------------|-----------------|
B|-------0---------|-------0---------|--------2--------|-3---------3---3-|
G|-------0---------|-------0---------|--------2--------|-2---------------|
D|-----0-----0---0-|-----0-----0---0-|-------------2---|-------2---------|
A|-2-----------2---|-2-----------2---|-0---------------|-------------0---|
D|-----------------|-----------------|-----------------|-----------------|

e|-----------------|-----------------|-----------------|-----------------|
B|-------3---------|-----3-----3-----|-----------------|-----------------|
G|-------0-----0h2-|-----2---2-2-----|-----------------|-----------------|
D|-----------------|-----------0-3---|-5-----5-x-x-5---|---------5-5-x-x-|
A|-----------------|-------------3---|-5-----5-x-x-5---|---------5-5-x-x-|
D|-0---------------|-0-----------3---|-5-----5-x-x-5---|---------5-5-x-x-|

e|-----------------|-----------------|-----------------|-----------------|
B|-1-----1-----1---|---------1-1-----|-1-----1----1----|-1-----1-----1---|
G|-2-----2-----2---|---------2-2-----|-2-----2----2----|-2-----2-----2---|
D|-3-----3-x-x-3---|---------3-3-x-x-|-3-----3-x--3----|-3-----3-----3---|
A|-x-----x-x-x-x---|---------x-x-x-x-|-x-----x-x--x----|-x-----x-----x---|
D|-3-----3-x-x-3---|---------3-3-x-x-|-3-----3-x--3----|-3-----3-----3---|

e|-----------------|-----------------|-----------------|-----------------|
B|-1-----1-----1---|-1-------1-1-1-1-|-3-----3-3-3-3-3-|-3-----3-3-3-3-3-|
G|-2-----2-----2---|-2-------2-2-2-2-|-0-----0-0-0-0-0-|-0-----0-0-0-0-0-|
D|-3-----3-----3---|-3-------3-3-3-3-|-0-----0-0-0-0-0-|-0-----0-0-0-0-0-|
A|-x-----x-----x---|-x-------x-x-x-x-|-3-----3-3-3-3-3-|-2-----2-2-2-2-2-|
D|-3-----3-----3---|-3-------3-3-3-3-|-----------------|-----------------|

e|-----------------|-----------------|-----------------|-----------------|
B|-3-----3-3-3-3-3-|-3-----3-3-3-3-3-|-1-----1-1-1-1-1-|-3-----3-3---3-3-|
G|-0-----0-0-0-0-0-|-2-----2-2-2-2-2-|-2-----2-2-2-2-2-|-4-----4-4---4-4-|
D|-0-----0-0-0-0-0-|-0-----0-0-0-0-0-|-3-----3-3-3-3-3-|-5-----5-5---5-5-|
A|-1-----1-1-1-1-1-|-0-----0-0-0-0-0-|-x-----x-x-x-x-x-|-x-----x-x---x-x-|
D|-----------------|-----------------|-3-----3-3-3-3-3-|-5-----5-5---5-5-|

e|-----------------|-----------------|-----------------|-----------------|
B|-3---3---3---3---|-3-3-3-3-3-3-3-3-|-3-----3-3-3-3-3-|-3-----3-3-3-3-3-|
G|-2---2---2---2---|-2-2-2-2-2-2-2-2-|-0-----0-0-0-0-0-|-0-----0-0-0-0-0-|
D|-0---0---0---0---|-0-0-0-0-0-0-0-0-|-0-----0-0-0-0-0-|-0-----0-0-0-0-0-|
A|-0---0---0---0---|-0-0-0-0-0-0-0-0-|-3-----3-3-3-3-3-|-2-----2-2-2-2-2-|
D|-0---0---0---0---|-0-0-0-0-0-0-0-0-|-----------------|-----------------|

e|-----------------|-----------------|-----------------|-----------------|
B|-3-----3-3-3-3-3-|-3-----3-3-3-3-3-|-1-----1-1-1-1-1-|-3-----3-3---3-3-|
G|-0-----0-0-0-0-0-|-2-----2-2-2-2-2-|-2-----2-2-2-2-2-|-4-----4-4---4-4-|
D|-0-----0-0-0-0-0-|-0-----0-0-0-0-0-|-3-----3-3-3-3-3-|-5-----5-5---5-5-|
A|-1-----1-1-1-1-1-|-0-----0-0-0-0-0-|-x-----x-x-x-x-x-|-x-----x-x---x-x-|
D|-----------------|-----------------|-3-----3-3-3-3-3-|-5-----5-5---5-5-|

e|-----------------|-----------------|-----------------|-----------------|
B|-3---3---3---3---|-3-3---3---3-3-3-|-------3---3---3-|-------3---3---3-|
G|-2---2---2---2---|-2-2---2---2-2-2-|-------0---------|-------0---------|
D|-0---0---0---0---|-0-0---0---0-0-0-|-----0-----------|-----0-----------|
A|-0---0---0---0---|-0-0---0---0-0-0-|-3-----------3---|-2-----------2---|
D|-0---0---0---0---|-0-0---0---0-0-0-|-----------------|-----------------|

e|-----------------|-----------------|-----------------|-----------------|
B|-------3---3---3-|-------3--3------|---------0h1-0h1-|-1/3-3-3-3-1-1-0-|
G|-------0---------|-------2---------|---------2---2---|-2/4-4-4-4-2-2-0-|
D|-----0-----------|-----0-----------|-------3---------|-3/5-5-5-5-3-3-2-|
A|-1-----------1---|-0---------------|-----------------|-x/x-x-x-x-x-x-2-|
D|-----------------|-----------------|-3---------------|-3/5-5-5-5-3-3-2-|

e|-----------------|
B|-3---------------|
G|-2---------------|
D|-0---------------|
A|-0---------------|
D|-0---------------|
Tap to rate this tab
# A B C D E F G H I J K L M N O P Q R S T U V W X Y Z