Guitaretab - guitar tabs
Song name
# A B C D E F G H I J K L M N O P Q R S T U V W X Y Z

Bigbang - Fly Like A Butterfly Sting Like A Bee tab

Fly like a butterfly sting like a bee - Bigban



Intro Riff Ė Riff 1

Verse 1:
Riff 1       Riff 1
My mone pone took all the money
Riff 2
Never touched my heart but tore me apart
Lord I donít know really where I belong

A
But I want you to ease my troubled mind
G                                       C-D
 Know that you gotta leave right on time
                      D Ė C Ė D            C
If you can understand you can be my right hand

Verse 2:
My mone pone boney maroney
Fly like a butterfly sting like a bee
And leave me hanging in the apple tree, sing with me

Chorus:
F           G          A
Fly like a butterfly sting like a bee
F           G          A
Fly like a butterfly sting like a bee

Verse 3:
Donít pull the trigger get someone bigger
Donít touch my heart but tear me apart
Lord I donít know really if I belong at all but I

Chorus:
Fly like a butterfly sting like a bee
Fly like a butterfly sting like a bee
You got me hanging like a mango in the apple tree

Verse 4:
A
I got the sound, I got the feeling
A
I got the sweat, and I need a job
[ Tab from: http://www.guitaretab.com/b/bigbang/66780.html ]
I want you to ease my troubled mind
Know that you gotta leave right on time
If you can understand you can be my right hand - sing it

Chorus:
Fly like a butterfly sting like a bee
Fly like a butterfly sting like a bee

Intro Riff:                          Riff 1:
|---------------0------3-------------|   |--------------0------3------------|
|------------------------------------|   |----------------------------------|
|----2-------------------------------|   |----------------------------------|
|-/2---2-2--0^2-----/5---4-4^5^4-0-0-|   |---------0^2------/5---4-4^5^4-0-0|
|--------0--------0------0-----------|   |----0-0---------0------0----------|
|------------------------------------|   |-3--------------------------------|

Riff 2:
|--------------0------3--------------||------------------------------------|
|------------------------------------||------------------------------------|
|------------------------------------||------------------------------------|
|---------0^2------/5---2-2ó-5--4----||---2-2-----5------4-4^5^4-0-5-------|
|----0-0---------0------0-0--0-------||-0---0--0--0------0-----------------|
|-3----------------------------------||------------------------------------|
Related for Fly Like A Butterfly Sting Like A Bee tab