Guitaretab - guitar tabs
Song name
# A B C D E F G H I J K L M N O P Q R S T U V W X Y Z

Bigbang - From Acid To Zen And Back Again tab

Har ikke laga den, den er bare for bra til ikke  legges ut!

Big Bang
From Acid to Zen     

E|------------------------------------------------------------------|
H|------------------------------------------------------------------|
G|----------------2---------------------------------------5---------|
D|------------------------------------------------------------------|
A|---------44h5p4---44h5p4---p54----4-4-4-4--------77h8p7----77h8p7-|
E|----(0h2)-----------------2-----2------------2/5------------------|

E|------------------------------------------------------------------|
H|------------------------------------------------------------------|
G|------------------------------------------------------------------|
D|------------------------------------------------------------------|
A|-------p87-----7-7-6-6--------------------------------------------|
E|----5------5------------5/2-------------x2------------------------|

E|------------------------------------------------------------------|
H|------------------------------------------------------------------|
G|------------------------------------------------------------------|
D|------------------------------------------------------------------|
A|-9-9-9-9-10-9-10-(9)---------------9-9-9---7----5-5-5-------------|
E|-7-7-7-7--7-7--7-(7)-----x 3-------7-7-7---5----3-3-3-------------|
[ Tab from: http://www.guitaretab.com/b/bigbang/67789.html ]
E|------------------------------------------------------------------|
H|------------------------------------------------------------------|
G|------------------------------------------------------------------|
D|------------------------------------------------------------------|
A|--9----------9-9-9---7----5---5-5-5--5-5-5--5-5-5-----------------|
E|--7--x-24----7-7-7---5----3---3-3-3--3-3-3--3-3-3------x-2--------|

E|------------------------------------------------------------------|
H|------------------------------------------------------------------|
G|------------------------------------------------------------------|
D|------------------------------------------------------------------|
A|---5-----------9--------10-9-10--9--9-9-9-9---5----------9--------|
E|---3--x16------7---x8---7--7--7--7--7-7-7-7---3---x32----7--x16---|

Refreng
E|------------------------------------------------------------------|
H|------------------------------------------------------------------|
G|-------4----------------------------------------------------------|
D|---4---4---2------------------------------------------------------|
A|---4---2---2------------------------------------------------------|
E|---2-------0---------(er akkordene som brukes p refrenget)-------|


F#                                        H       E    
“I can get through, to you”
Related for From Acid To Zen And Back Again tab