Guitaretab - guitar tabs
Song name
# A B C D E F G H I J K L M N O P Q R S T U V W X Y Z

Bigbang - Frontside Rock N Roll tab

Frontside rock `n`roll (acoustic version)

Album: Radio Radio TV Sleep
Transcribed by: Jarle Solheim
E-mail: jarle_sunhome@hotmail.com

Note: This should be about 100% right according to how Greni plays it (I acctually got 
to show me the tuning in person!). However, there are some less significant variations in 
tone succession which I haven't taken into consideration in this tab.

H = Hammer on
P = Pull off
S = Slide

Tuning (equal to CD): C G C G A d (D A D A H e can also be used)

Intro:

d ------------5---------------------------------|
A -----3--------3-----3-----1---------1-----1---|
G -------0--------0-----0-----0---------------0-|
C ----------------------------------0-----------|
G -3s5-----5--------5-----3-----3-2-----3h2-----|
C ----------------------------------------------|

d ----------------------------------------------------------------------|
A -------1-------1----1h3-----1-----3p1-----1-------1-------1-------1---|
G --------------------------------------------------------0-----0h2---0-|
C -----0-------0---0--------0-----0-------2-------2---2-3-----3---------|
G -3s5-----3s5------------5-----5-------0-----0-0-----------------------|
C ----------------------------------------------------------------------|

d --------------------------------------------------------|
A -------1-----1---3-1---3p1-----1------1-------1-------1-|
G ----------------(0)-------------------------0-----0h2---|
C -----------0---0-------------2------2---2-3-----3-------|
G -3-3s5---5-----------5-----0-----00---------------------|
C --------------------------------------------------------|

Verse :
               You dont have to...(repete 3x)
d ----------------------------------------------------------------------|
A ---------3-------3-------3-------3--------1-------1-------1-------1---|
G -------0---0---0---0---0---0---0---0--------------------0-----0h2---0-|
C ----------------------------------------2-------2---2-3-----3---------|
G -3-3s5-------5-------5-------5--------0-----0-0-----------------------|
C ----------------------------------------------------------------------|
              You really dont mean to
              Just because I

             I am going too..
d -----------------------------------------------------------------|
A -------3-------3-------3-------3-------3-------3-------3-------3-|
G -----0---0---0---0---0---0---0---0---0---0---0---0---0-------0---|
C -----------------------------------------------------------------|
G -----------------------------------------------------------------|
C -2-3-------3-------2-------2-------0-------0-------0-----0-2-----|

             I am going too..
d -------------------------------------------------------------------|
A -------3-------3-------3-------3-------3-------3-------3-------0---|
G -----0---0---0---0---0---0---0---0---0---0---0---0---0-------0---0-|
C -------------------------------------------------------------------|
G -------------------------------------------------------------------|
C -2-3-------3-------2-------2-------0-------0-------0-----2-3-------|
[ Tab from: http://www.guitaretab.com/b/bigbang/85658.html ]
Chorus 1:
(part 1)
          Now all the flowers have been broken
d -----------------------------------------------------------------|
A -----1-------1-------3-------3-------3-------3-------3-------3---|
G -------------------0---0---0---0---0---0---0-------0-------0---0-|
C ---2-------2-----------------------------------------------------|
G -0-----0-0-----2-3-------3---------------------------------------|
C ---------------------------------3-------3-----3-2-----2-3-------|
(part 2)
           But we watched them for a while..
d -------------------------------------3-------3-------3---3-------|
A -----1-------1-------3-------3---------3-------3-------3---3---3-|
G -------0-----------0---0---0---0---0-------0-------0---------0---|
C ---2-------2---------------------0-------0-------0---------------|
G -0-------0-----2-3-------3---------------------------------------|
C -----------------------------------------------------------------|

(part 1)   And we know you got your token

(part 3)   So go on, dont miss your last..
d -------------------------------------3-------3-------3--------3---1-------|
A -----1-------1-------3-------3---------3-------3-------3--------3---3-----|
G -------0-----------0---0---0---0---0-------0-------0--------0---------0---|
C ---2-------2---------------------0-------0-------0--------0-------------0-|
G -0-------0-----2-3-------3------------------------------------------------|
C --------------------------------------------------------------------------|

d -1-----0-----------0-|
A ---3-----3-------3---|
G -----0-----0---0-----|
C -------------0-------|
G ---------------------|
C ---------------------|

  Riff:

d -----------------------------3----------------------------0-------|
A -----1-------1-------3s1-------1-3h5-3h5p3-1---------3-----3---3-|
G ----------------------------------(0)---------0-----0---0-----0---|
C ---2-------2-----2s4-------2--------------------------------------|
G -0-----0-0-----0---------0----------------------------------------|
C ---------------------------------0--------------3s5---------------|

d -----------------------------3------------------------------------|
A -----1-------1-------3s1-------1-3h5-3h5p3-1---------3-------3---|
G ----------------------------------(0)---------0-----0---0---0---0-|
C ---2-------2-----2s4-------2--------------------------------------|
G -0-----0-0-----0---------0----------------------------------------|
C ---------------------------------0--------------3s5-------5-------|

Chorus 2:

part1: Another life inside the mirror
part2: Over big blue distant seas..
part1: Some find joy among the horror
part3: Then well slip in, evetually..

Riff (play harder):

d -----------------------------3------------------------------------|
A -----1-------1-------3s1-------1-3h5-3h5p3-1--------3-3----------|
G ----(0)-----(0)-------------------(0)---------0------0-0----------|
C ---2-------2-----2s4-------2-------------------------0-0----------|
G -0-----0-0-----0---------0---------------------------x-x----------|
C ---------------------------------0--------------3s5--5-5----------|

d -----------------------------3------------------------------------|
A -----1-------1-------3s1-------1-3h5-3h5p3-1---------3-------3---|
G ----------------------------------(0)---------0-----0---0---0---0-|
C ---2-------2-----2s4-------2--------------------------------------|
G -0-----0-0-----0---------0----------------------------------------|
C ---------------------------------0--------------3s5-------5-------|

Chorus 3:

part1: So, have a ball with all the mermaids

           And heres a line I wrote for you..
d -------------------------------------3-------3----3-2-0--------|
A -----1-------1-------3-------3---------3-------3--------3------|
G -------0-----------0---0---0---0---0-------0--------------0----|
C ---2-------2---------------------0-------0------------------0--|
G -0-------0-----2-3-------3-------------------------------------|
C ---------------------------------------------------------------|

part1: Hit the spine backside disaster
part3: And exit frontside rock n roll..

Outro:

d -----------------------------3--------------------------------------0-|
A -----1-------1-------3s1-------1-3h5-3h5p3-1--------3-3-3--------0---|
G ----(0)-----(0)-------------------(0)---------0------0-0-0------0-----|
C ---2-------2-----2s4-------2-------------------------0-0-0----2-------|
G -0-------0-----0---------0---------------------------x-x-x-0---------|
C ---------------------------------0--------------3s5--5-5-5------------|
Related for Frontside Rock N Roll tab