Guitaretab - guitar tabs
Song name
# A B C D E F G H I J K L M N O P Q R S T U V W X Y Z

Bigbang - Too Much Yang tab

Too much yang tab(incomplete)

Til denne tab'en trenger du en slider. Kan fs kjpt hos musikk-
forretninger til ca en hundrelapp

intro: (x2)
d ------------------------------------------------------------|
b ------------------------------------------------------------|
g ------------------------12----------------------------------|
d ----10-----10-----3-----12-----10-----10-0-3/5--------------|
g 0-0-10-0-0-10-0-0-3-0-0----0-0-10-0-0-10-0-3/5--------------|
d ------------------------------------------------------------|
Verse:
d------------------------12-------------------------------------|
b---------------------14----------------------------------------|
g-------------5-------------------------5-----------------------|
d-0-----3-----5-----0-------0-----3-----5-----0-----------------|
g-0-----3-----5-----0-------0-----3-----5-----0-----------------|
d---------------------------------------------------------------|
[ Tab from: http://www.guitaretab.com/b/bigbang/88314.html ]
d------------------------------------------------------------|
b------------------------------------------------------------|
g------------------------------------------------------------|
d-8--8-8-8-8--8--8-8-8-8--10--10-10-10-10--10--10-10-10-10---|
g-8--8-8-8-8--8--8-8-8-8--10--10-10-10-10--10--10-10-10-10---|
d------------------------------------------------------------|

d------------------------------------------------------------|
b------------------------------------------------------------|
g------------------------------------------------------------|
d-8--8-8-8-8--8--8-8-8-8--3--3-3-3-3--5----------------------|
g-8--8-8-8-8--8--8-8-8-8--3--3-3-3-3--5----------------------|
d------------------------------------------------------------|

Chorus:
d ------------------------------------------------------------|
b ------------------------------------------------------------|
g ------------------------12----------------------------------|
d ----10-----10-----3-----12-----10-----10-0-3/5--------------|
g 0-0-10-0-0-10-0-0-3-0-0----0-0-10-0-0-10-0-3/5--------------|
d ------------------------------------------------------------|
Related for Too Much Yang tab