Song name
# A B C D E F G H I J K L M N O P Q R S T U V W X Y Z

Bigbang - Hurrican Boy tab

----------------------|---------------|-----------------|--------|
------------9----/\---|---------------|-------9---------|--11-9--|
-----7-8-10----8-7-8--|--7-8-7----7---|--8-10----8-7-8--|--------|
----------------------|-------\8h-----|-----------------|--------|
----------------------|---------------|-----------------|--------|
----------------------|---------------|-----------------|--------|

intro ref.
------------------|
-----5--5---7--5--|
-----7--7---9--7--|
------------------|
------------------|
------------------|
Tap to rate this tab
# A B C D E F G H I J K L M N O P Q R S T U V W X Y Z