Song name
# A B C D E F G H I J K L M N O P Q R S T U V W X Y Z

Bigwig - Moosh tab

------------------------------------------------------------
BIGWIG - MOOSH
------------------------------------------------------------

BY: DEREK

INTRO: Also play between chorus and verses
e |-7-----7----------------------------|
B |---8-----10-7---10-8------8-7-----8-|
G |-----7--------7------9--------7-9---|
D |-----------------------10-----------|
A |------------------------------------|
E |------------------------------------|

VERSES AND CHORUS:
e |------------------------------------|
B |------------------------------------|
G |---------7-7-7-7-4-4-4-4-5-5-5-5----|
D |-5-5-5-5-7-7-7-7-4-4-4-4-5-5-5-5----|
A |-5-5-5-5-5-5-5-5-2-2-2-2-3-3-3-3----|
E |-3-3-3-3----------------------------|
Tap to rate this tab
 
# A B C D E F G H I J K L M N O P Q R S T U V W X Y Z