Song name
# A B C D E F G H I J K L M N O P Q R S T U V W X Y Z

Bigwig - Outer Rings tab

Band: Bigwig
Album: Reclamation (2006)
Song: Outer Rings (#3)
Tabbed by: Dani Vegara
E-mail: lecheconcarne@hotmail.com

It's not 100% accurate but is a basic idea of the song


Intro..                        Drums start here
e|------------------------.--------------------------|  |------------------|
B|------------------------.--------------------------|  |------------------|
G|------------------------.--------------------------|  |------------------|
D|------------------------.--------------------------|x3|--555555----------|
A|-5--5/7~~----5--5/7~~---.--5---5/7~~-----5---5/7~~-|  |--333333--555555--|
E1-3--3/5~~----3--3/5~~---.--3---3/5~~-----3---3/5~~-|  |----------333333--|
   1st guitar    2nd guitar    1st guitar    2nd guitar


Intro 2.. Everything goes on!
e|----------------------------------------|
B|----------------------------------------|
G|----------------------------------------|
D|----------------------------------------|  X 2
A|--77~777/5/77~5/77~--1010~101010~55~555-|
E|--55~555/3/55~3/55~--8-8~~8-8-8~~33~333-|


Verse 1: The same as intro but Palm-mutting.. (the * means palm-mutting)
e|----------------------------------------|
B|----------------------------------------|
G|----------------------------------------|
D|----------------------------------------|  X 4 (Last two times w/o palm-mutting)
A|--77~777/5/77~5/77~5/1010~101010~55~555-|
E|--55~555/3/55~3/55~3/8-8~~8-8-8~~33~333-|
    *************************      ****


Verse part 2:
e|---------------------------|
B|---------------------------|
G|---------------------------|
D|---------------------------|  X 2
A|--33333--55555--77777--7-5-|
E|--11111--33333--55555--5-3-|


e|---------------------------------|
B|---------------------------------|
G|---------------------------------|
D|---------------------------------|
A|--33333--55555--77777--7-5--3~~~~|
E|--11111--33333--55555--5-3--1~~~~|
     ***    ***    ***


Chorus:
e|--------------------------|      |--------------|
B|--------------------------|      |--------------|
G|--------------------------|      |--------------|
D|--------5555--------------|  x3  |--------------|
A|--7777--3333--3333--5555--|      |----3~~-------|
E|--5555--------1111--3333--|      |----1~~-------|


Repeat from intro 2, everything 'til it stops and it's just the guitar and the drum's bass:

e|--------------------|      |--------------|
B|--------------------|      |--------------|
G|--------------------|      |--------------|
D|------5555----------|  x3  |--------------|
A|--7777333333335555--|      |--33333333----|
E|--5555----11113333--|      |--11111111----|
    ****************            ********


1st guitar repeats this part again and 2nd guitar comes like this:
e|-----------------------------------------------------------|
B|-----------------------------------------------------------|
G|--9--9--99--7--9—-7/5—-5~------9--10-9--12--10-9109--------|
D|-----------------------------------------------------------|
A|--7--7--77--5--7—-5/3--3~------7--8--7--10--8—-78-7--------|
E|-----------------------------------------------------------|


e|-----------------------------------------------------------|
B|-----------------------------------------------------------|
G|--9--7—-9--7--5—-7—-5~---------9/7—-7/5—-5/4—-5/4—-4~------|
D|-----------------------------------------------------------|
A|--7--5—-7--5—-3—-5--3~---------7/5—-5/3—-3/2--3/2—-2~------|
E|-----------------------------------------------------------|


Then:
e|----------------------------------|
B|----------------------------------|
G|----—-----—-----------------------|
D|--7-----------7----10---3----5----|
A|--7--—---—---—7----10---3----5----|
E|--5-----------5----8----1----3----|


Solo: (I ain’t got enough frets in my Spanish guitar to figure that out right now 
‘next time!.. well it messes around with A I guess.. I’ll try to tab that out another time..)


Rhythm guitar:
e|---------------------------------|
B|---------------------------------|
G|---------------------------------|
D|--------5555----------------3~~--|
A|--7777--3333--3333--5555----3~~--|
E|--5555--------1111--3333----1~~--|


e|--------------------------|      |------------|
B|--------------------------|      |------------|
G|--------------------------|      |------------|
D|--------5555--------------|  x3  |------------|
A|--7777--3333--3333--5555--|      |----3~~-----|
E|--5555--------1111--3333--|      |----1~~-----|


Repeat Chorus ‘til the end..
e|--------------------------|      |------------|
B|--------------------------|      |------------|
G|--------------------------|      |------------|
D|--------5555--------------|  x3  |------------|
A|--7777--3333--3333--5555--|      |----3~~-----|
E|--5555--------1111--3333--|      |----1~~-----|


Official Bigwig website: http://www.njbigwig.com/
Official Bigwig Myspace: http://www.myspace.com/bigwignj
Tap to rate this tab
# A B C D E F G H I J K L M N O P Q R S T U V W X Y Z