Song name
# A B C D E F G H I J K L M N O P Q R S T U V W X Y Z

Bijelo Dugme - Djurdjevdan chords

Highlighted       Show chord diagrams
Artist: Bijelo Dugme
Album: Ćiribiribela
Song: Djurdevdan (Đurđevdan)



Proljece na moje rame slijece
djurdjevak zeleni
djurdjevak zeleni
svima osim meni


Am (throughout the whole verse)
Drumovi odose, a ja ostah
nema zvijezde Danice
nema zvijezde Danice
moje saputnice


Am    G         C  
  Ej, kome sada moja draga
Dm              F             
  na djurdjevak mirise
Dm              Am G            
  na djurdjevak mirise
C      E7    Am               
  meni nikad  vise


C            Dm                    
Eeeeeeeeeeeeeeeeeee,
C         Dm                   
evo zore, evo zore
Am         Dm               
Bogu da se pomolim
Am        Dm          
evo zore, evo zore
F                      
ej, Djurdjevdan je
Dm           C       E7   Am        
  a ja nisam  s onom koju  volim

C            Dm                    
Eeeeeeeeeeeeeeeeeee,
C         Dm                   
evo zore, evo zore
Am         Dm               
Bogu da se pomolim
Am        Dm          
evo zore, evo zore
F                      
eeeeeej, Djurdjevdan je
Dm           C       E7   Am        
  a ja nisam  s onom koju  volim


                A            Bm       E                     
e|--------------12-10--10-9--9-7--7-5-4-5-7--------------------------|
B|--9--10-12---------------------------------------------------------|
G|-------------------------------------------------------------------|
D|--6--7--9----------------------------------------------------------|
A|-------------------------------------------------------------------|
E|-------------------------------------------------------------------|

                          A            Bm       E                     
e|------------------------12-10--10-9--9-7--7-5-4--------------------|
B|--9--10-12---------------------------------------------------------|
G|-------------------------------------------------------------------|
D|--6--7--9----------------------------------------------------------|
A|-------------------------------------------------------------------|
E|--------------5-5-5------------------------------------------------|


Am (throughout the whole verse)                       
Ej, kome sada moja draga
na djurdjevak mirise                             
na djurdjevak mirise                            
meni nikad vise


Am      G        C  
  Njeno ime neka se spominje
Dm              F             
  svakog drugog dana
Dm              Am  G            
  svakog drugog daaaana
C      E7      Am               
  osim Djurdjevdana
                            

C            Dm                    
Eeeeeeeeeeeeeeeeeee,
C         Dm                   
evo zore, evo zore
Am         Dm               
Bogu da se pomolim
Am        Dm          
evo zore, evo zore
F                      
ej, Djurdjevdan je
Dm           C       E7   Am        
  a ja nisam  s onom koju  volim


C            Dm                    
Eeeeeeeeeeeeeeeeeee,
C         Dm                   
evo zore, evo zore
Am         Dm               
Bogu da se pomolim
Am        Dm          
evo zore, evo zore
F                      
eeeeeej, Djurdjevdan je
Dm           C       E7   Am        
  a ja nisam  s onom koju  volim
Dm           C       E7   Am        
  a ja nisam  s onom koju  volim
Dm           C       E7   Am        
  a ja nisam  s onom koju  volim
Tap to rate this tab
 
# A B C D E F G H I J K L M N O P Q R S T U V W X Y Z