Guitaretab - guitar tabs
Song name
# A B C D E F G H I J K L M N O P Q R S T U V W X Y Z

Bijelo Dugme - Bekrija Sam Sta Se Kog Tice tab

           BEKRIJA SAM, STA SE KOG TICE


Solo:
E------------------------|--12b10\7--------|-----5---7---8---9-|
H----------10-8-------8--|-----------10-8---|-------------------|
G--9999-7------9-9-7-9-9-|---------------7--|--5p6-6/7-7/8-8/9--|
D---------9--------------|----------------9-|-------------------|
A------------------------|------------------|-------------------|
E------------------------|------------------|-------------------|
[ Tab from: http://www.guitaretab.com/b/bijelo-dugme/51886.html ]
E-----------------------|-----------------------------|
H-----------------------|-----12-10-------------------|
G-----9-7---------------|--8p9-----11-11109999--------|
D7p8----9-987777-------|---------------------12-99\3-|
A----------------10-777-|-----------------------------|
E-----------------------|-----------------------------|

E---------------------------------|
H---------------------------------|
G2/4b-4b-4b-4b-4b-4b-4b-4b-4b/1--|
D---------------------------------|
A---------------------------------|
E---------------------------------|
Related for Bekrija Sam Sta Se Kog Tice tab