Song name
# A B C D E F G H I J K L M N O P Q R S T U V W X Y Z

Bijelo Dugme - Necu To Na Brzaka tab

 Bijelo Dugme - Necu to na brzaka

 Nikola Samailovic Johnny


  uvod:
|----------------------5------------------------------|
|------------------------7---------8-7-8--7-5-7--5----|
|--7-6-7-6-7-6-7-6-7-6-----7--7-7------------------7--|
|-----------------------------------------------------| 2x
|-----------------------------------------------------|
|-----------------------------------------------------|


|----7--5---5------------------------------|
|--5------8---7---------8-7-8--7-5-7--5----|
|---------------7--7-7------------------7--|
|------------------------------------------| 2x
|------------------------------------------|
|------------------------------------------|

  solo:

 pm..............|
|--------------------------------------------------------------------|
|--------------------------------------------------------------------|
|--7-7-7-7-7-7-7-7-7-7-7-7-7----7-7--7-8-9---------------------------|
|----------------------------9--------------7-7-7-7-8--9-8-7--9-8-7--|
|--------------------------------------------------------------------|
|--------------------------------------------------------------------|
   D     D#
Tap to rate this tab
 
# A B C D E F G H I J K L M N O P Q R S T U V W X Y Z