Song name
# A B C D E F G H I J K L M N O P Q R S T U V W X Y Z

Bijelo Dugme - Dozivjeti Stotu tab


Riff 1 (uvod)
|-----------------------------|
|-----------------------------|
|-----------------------------|
|------2-5--------------------|
|--3-3----------2-5------0-1--|
|-----------3-3------1--------|

Riff 2
|---------------------------------|
|---------------------------------|
|---------------------------------|
|--5-5-5-5---------------5--5-5-5-|
|--3-3-3-3-3-3-3-3-5-5-5-3--3-3-3-|
|----------1-1-1-1-3-3-3----------|

Riff 3
  (e ole o)
|-------------------------|   |-------------------------------|
|-------------------------|   |-------------------------------|
|-------------------------| x |-------------------------------|
|-----------5-5-5-5-5-5-5-| 3 |--------------5--5-5-5-5-5-5-5-|
|--3--------3-3-3-3-3-3-3-|   |-3-3-3-3-5-5--3--3-3-3-3-3-3-3-|
|--1----------------------|   |-1-1-1-1-3-3-------------------|

Riff 4
|-----|
|-----|
|-----|
|-----|
|--5--|
|--3--|



|---------------------------|
|---------------------------|
|---------------1-4---------|
|------1-4--2-2-------------|
|--2-2----------------1-2---|
|---------------------------|

Tap to rate this tab
# A B C D E F G H I J K L M N O P Q R S T U V W X Y Z