Song name
# A B C D E F G H I J K L M N O P Q R S T U V W X Y Z

Bijelo Dugme - Tako Ti Je Mala Moja Kad Ljubi Bosanac Tab tab

Tako ti je mala moja kad ljubi Bosanac Tab by Bijelo Dugme


Posto za ovu pjesmu imaju samo akordi evo reko
da probam napisat ovu pjesmu kako je ja sviram.
Nadam se da ce vam se svidjeti.

s-slide
b-bend up

UVOD:
  A E A   A E A
|------------------|
|------------------|
|------------------|
|------------------|
|------------------|
|-5-0-5---5-0-5----|


|-----------------------------------|
|-----------------------------------|
|-----------------------------------|
|-5-5-5-5-5-5-5-5-5-5-5-5-5-5-5-5-5-|
|-3-3-3-3-3-3-3-3-3-3-3-3-3-3-3-3-3-|
|-----------------------------------|
Ovaj dio ide uz tekst:"Lijepo cu se..."
moze i PM

|-------------------|
|-------------------|
|-------------------|
|-3s5--5-5--5-5--5--|
|-3s5--5-5--5-5--5--|
|-------------------|
Poslusajte kako ide kada ovaj dio oni sviraju pa cete valjda shvatiti.

|-------------------------|------------------------------------------------------|
|-------------------------|-4---3-1----4---3-4-6-4-3--1-----4---3-1-----3-3---3-3|
|-------------------------|------------------------------------------------------|
|-7---7------5---5--------|------------------------------------------------------|
|-5---5------3---3-----5--|------------------------------------------------------|
|----------------------3--|------------------------------------------------------|
"I na kraju kad ti kazem    "Hej stani, hej stani lane moje, hej stani"
volim te..."


SOLO:
(nije ovo pravi solo nego to je onako malo samo da se nesto ubaci)

|-------------------------------------------------------------12-14--------|
|------------------12s15--17b19--15--17b19--15--17b19--15--15-------15-12--|
|--12b-12b--10-9-10--------------------------------------------------------|
|--------------------------------------------------------------------------|
|--------------------------------------------------------------------------|
|--------------------------------------------------------------------------|

|---------8-------------6-----------|
|-10-8-10---10-8--8-6-8---6---------|
|----------------------------7s0----|
|-----------------------------------|
|-----------------------------------|
|-----------------------------------|

Pa ide opet ono "Hej stani..." pa se dalje snalazite.

Eto to je to! Sretno!

Tap to rate this tab
# A B C D E F G H I J K L M N O P Q R S T U V W X Y Z