Guitaretab - guitar tabs
Song name
# A B C D E F G H I J K L M N O P Q R S T U V W X Y Z

Bijelo Dugme - Bitanga I Princeza tab

Uvod:
E--------------------------|
H--------------------------|
G--------------------------|
D--8-7---------------------|
A-----10---8-7----------7--|
E-------------8/10-10---5--|

  D*                            A*
E-----------------------------  ---------------------|
H---------8-6------6---6---86-  ---------------------|
G--7-x----7-5---7--7-7-7-7-75-  -------5--------5-5--|
D--7-x----------7--7-7-7-7----  -7---7-7--7---7-7-5--|
A--5------------5----5---5----  -7---7-7--7---7-7-3--|
E-----------------------------  -5---5----5---5------|


      D*
Luda noc
                      A*
Ja sam momak na losem glasu
U ovom gradu, a ko si ti?
                 D*
A ona kaze, luda noc
                       A*
Ja sam bila mamina princeza
Sve do sada i sta mi bi

ref:

E---------------------------------------|
H--------------------------------8-6----|
G-------------------------7-x----7-5-7--|
D------5-777-555----------7-x--------7--|
A------3-555-333----------5----------5--|
E---------------------------------------|

   Tebe traze,ponoc je vec

E----------------------------------|
H----------------------------------|
G----------------------------------|
D------5-777-555-------------------|
A------3-555-333------------3------|
E---------------------------1------|

   Tebe traze, sta ce tata rec'

E----------------------------------------|
H----------------------------------------|
G----------------------------------------|
D--------------------8-7-----------------|
A-----5--7--------------10---8-7---------|
E-----3--5----------------------8/10-10--|

   Ne,ne ne, bitanga i princeza - par

E----------------------------|
H----------------------------|
G----------------------------|
D----------------------------|
A--7-------------------------|
E--5-------------------------|

                  D*, A*
   O o o, ne ide to

       D*
Svice dan
Ja sam momak na losem glasu
U ovom gradu i moras poc

Ma ne trebam
Jos bi malo bila s tobom
Bas si dobar, jos nije noc

ref
[ Tab from: http://www.guitaretab.com/b/bijelo-dugme/95080.html ]
Gm
Rek'o sam joj da sam sit
                         Dm         C
I princeza i svih drugih prevarenih zena
    B
A i nje...
Gm
Reko sam joj da cu otic'
B                         A
Otic iz ovog smijesnog grada

E----------------------------------------------|
H----------------------------------------------|
G----------------------------------------------|
D4/7777-5/7x-5/7-7-4/7777-5/7-5---------------|
A-------------------------------8-7-D*-A*------|
E----------------------------------------------|

                   I da me pusti da spavam  ,u u u uu

Solo

Luda noc.....

ref

a, aaaa a aaaa aaaa a aaaaa


Kratke solaze koje Bregovic ubaciva u toku pjesme:

E15b-13-------------------13----|-----------------------|
H--------15-13-15-13-15-13---15--|---8b-6b-8b-6------6b--|
G--------------------------------|-------------7-7-7-----|
D--------------------------------|-----------------------|
A--------------------------------|-----------------------|
E--------------------------------|-----------------------|

E--------------|---------------13b-12-10-----8/10---------------------|
H--------------|--------6-9\8-----------13-10----13-10----------------|
G--------------|-----5-7------------------------------12-10-7-9/10-7--|
D--------------|--5/7-------------------------------------------------|
A--------------|------------------------------------------------------|
E3/5-6-5-5\3--|------------------------------------------------------|

Solo:
E-------------|-----------------|----------------------------|
H-------------|-----------------|----------------------------|
G-------------|-----------------|----------------------------|
D-------------|-----------------|-5--7-7/8-7-5---------------|
A--5-7-7/8----|-5----5-7-7/8\7--|-------------8-7h8p7--------|
E----------6--|---------------6-|--------------------10-9-6-|

E------------------------------------------------|
H------------------------------------------------|
G------------------------------------------------|
D--78787------781087------78787878787------------|
A-------10-8-7------10-8-7-----------10-8-7------|
E------------------------------------------10-9-|

   a,aaa a a a,

E----------------|
H----------------|
G----------------|
D----------------|
A--5-555-7-8-----|
E------------6---|
Related for Bitanga I Princeza tab