Guitaretab - guitar tabs
Song name
# A B C D E F G H I J K L M N O P Q R S T U V W X Y Z

Bijelo Dugme - Pozuritr Konji Moji tab

Pozurite Konji Moji - Bijelo Dugme

riff i solo sema:
   - A sema: AGACA , AAC
             ACAC  , AAAC

   - D sema: DCDFD,DDp

      A sema
Ponoc kuca nano moja, a ja nemam sna
Gdje su sada konji moji moja oka dva
     A sema
Zlatom cu ih potkovati, pozlaticu sve
Samo da me prije zore odnesu do nje

D sema             A sema
Dug je put, dug je put
Pozurite konji moji
D sema       E
Dug je put, brze jos brze
                    E7   A sema
O, brze jurite kroz noc

I ne kuni stara mati sto ja nemam sna
I ne kuni konje moje, moja oka dva
Znas kad meni na um padnu milovanja sva
Ja ne gledam je li ponoc ili sunce sja

Solo:
E------------------------------|
H------------------------------|
G------------------------------|  4x
D------------------------------|
A------------------------------|
E--55-3-55-3-5-55-3-55-3-55-3--|
                                     Bas
E--------------------------------|   ---------------------|
H--------------------3-3/5-3-----|   ---------------------|
G--------------2-5-5---------5-4-|   ---------------------|  7x
D------------5-------------------|   ---------------------|
A------3-3/5---------------------|   --------3---------3--|
E-3-5---------------------------|   --5-3-5---5-x-5-5----|

|--11/12--------------10-------|--11/12--------------10---------|
|------------13-12-13----12-10-|------------13-12-13----12-10/5-|
|------------------------------|--------------------------------|
|------------------------------|--------------------------------|
|------------------------------|--------------------------------|
|------------------------------|--------------------------------|

E-------------------------8---------|
H--10-x-10-x-10-10--10-8----10-8-10-|
G-----------------------9-----------|
D-----------------------------------|
A-----------------------------------|
E-----------------------------------|


E--------------------------------------------------------|
H--x-10-x-10-x-10-x-10-10-10-10-8---x-10-10-10-8-10-10/3-|
G--------------------------------9x----------------------|
D--------------------------------------------------------|
A--------------------------------------------------------|
E--------------------------------------------------------|

E-----------------------------|
H-----------------------------|
G-----------------------------|
D-----------------------------|
A--035-057-057-079-5/10-12-7--|
E--------------------------5--|

E--11/12--------------10-------|--11/12--------------10---------|
H------------13-12-13----12-10-|------------13-12-13----12-10/3-|
G------------------------------|--------------------------------|
D------------------------------|--------------------------------|
A------------------------------|--------------------------------|
E------------------------------|--------------------------------|

E-----------------8----|
H--10-x-10-x-10-x---10-|
G----------------------|
D----------------------|
A----------------------|
E----------------------|

---------17------17-------|---------17------17-------|
--10-x-x----10-x----10-10-|--10-x-x----10-x----10-10-|
--------------------------|--------------------------|
--------------------------|--------------------------|
--------------------------|--------------------------|
--------------------------|--------------------------|
[ Tab from: http://www.guitaretab.com/b/bijelo-dugme/95083.html ]
E---------------17--------------------|
H--13-12---------------------13-12----|
G-------14-12-14--14-14-14-12-----12--|
D-------------------------------------|
A-------------------------------------|
E-------------------------------------|

--------------17-----------------------|
-13-12------------------------13-12----|
------14-12-14--14-14-14-12-14-----12--|
---------------------------------------|
---------------------------------------|
---------------------------------------|

E---------------17-----------------------|
H--13-12------------------------13-12----|
G-------14-12-14--14-14-14-12-14-----12--|
D----------------------------------------|
A----------------------------------------|
E----------------------------------------|

--------------17-------------------|
-13-12-----------------------------|
------14-12-14--14-14-14-12-14-12--|
-----------------------------------|
-----------------------------------|
-----------------------------------|

E-----------------------------|
H-----------------------------|
G-----------------------------|
D-----------------------------|
A--035-057-057-079-5/10-12-7--|
E--------------------------5--|


E--11/12--------------10-------|--12-11h12p11-------------|
H------------13-12-13----12-10-|--------------13-11/12-10-|
G------------------------------|--------------------------|
D------------------------------|--------------------------|
A------------------------------|--------------------------|
E------------------------------|--------------------------|

E--12\10----10-10/12-10-------|--12-11h12p11-------------------|
H--------13-------------13-10-|--------------13-13-12-12/13-10-|
G-----------------------------|--------------------------------|
D-----------------------------|--------------------------------|
A-----------------------------|--------------------------------|
E-----------------------------|--------------------------------|

E--10/12-10/12-10/12-10/12-------|
H--------------------------13-10-|
G--------------------------------|
D--------------------------------|
A--------------------------------|
E--------------------------------|

--12-11-------9/10----8-10-8h10p8-7-8-7-|
-------13-12----------------------------|
----------------------------------------|
----------------------------------------|
----------------------------------------|
----------------------------------------|

E----------------------------------|
H----------------------------------|
G----------------------------------|
D----------------------------------| 4x
A----------------7--5-7-5---5------|
E--5--8--7-8-7-5----------8---8-7--|

E-----------------------------------------------------------------|
H-----------------------------------------------------------------|
G-----------------------------------------------------------------|
D--------------------5-555-555-555555--7-777-777-777777-----------|
A--7-777-777-777777--3-333-333-333333--5-555-555-555555--7-5-3-2--|
E--5-555-555-555555-----------------------------------------------|

E-------------------------------------------------------------------|
H-------------------------------------------------------------------|
G-------------------------------------------------------------------|
D--------------------5-555-555-555555--7-777-777-777777-------------|
A--7-777-777-777777--3-333-333-333333--5-555-555-555555--7-5-3-2-2--|
E--5-555-555-555555----------------------------------------------0-|
Related for Pozuritr Konji Moji tab