Song name
# A B C D E F G H I J K L M N O P Q R S T U V W X Y Z

Bikini Kill - Rebel Girl tab

Rebel Girl- Bikini Kill  

 |----------- P.M. ----------|       |----------- P.M. ----------|
e:------------------|-----------------|-----------------|-----------------|
B:------------------|-----------------|-----------------|-----------------|
G:------------------|-----------5-5-5-|-----------------|-----------7-7-7-|
D:--2-2-2-2-2-2-2-2-|-2-2-2-2-2-5-5-5-|-2-2-2-2-2-2-2-2-|-2-2-2-2-2-5-5-5-|
A:--0-0-0-0-0-0-0-0-|-0-0-0-0-0-3-3-3-|-0-0-0-0-0-0-0-0-|-0-0-0-0-0-5-5-5-|
E:------------------|-----------------|-----------------|-----------------|





      |------- P.M. ----------|           |----- P.M. ----|
e:-----------------|-----------------|-----------------|------------------||
B:-----------------|-----------------|-----------------|---5--------------||
G:-2---------------|-----------5-5-5-|---2-------------|---------4b(5)----||
D:-2-2-2-2-2-2-2-2-|-2-2-2-2-2-5-5-5-|-2-2-2-2-2-2-2-2-|-2----------------||
A:-0-0-0-0-0-0-0-0-|-0-0-0-0-0-3-3-3-|-0-0-0-0-0-0-0-0-|-0----------------||
E:-----------------|-----------------|-----------------|------------------||



The verses basically follow this pattern, with variations:


e:------------------|-----------------|-----------------|-----------------||
B:------------------|-----------------|-----------------|-----------------||
G:------------------|-----------5-5-5-|-----------------|-----------7-7-7-||
D:--2-2-2-2-2-2-2-2-|-2-2-2-2-2-5-5-5-|-2-2-2-2-2-2-2-2-|-2-2-2-2-2-5-5-5-||
A:--0-0-0-0-0-0-0-0-|-0-0-0-0-0-3-3-3-|-0-0-0-0-0-0-0-0-|-0-0-0-0-0-5-5-5-||
E:------------------|-----------------|-----------------|-----------------||





The Chorus repeats this riff:                                        


e:------------------|-----------------||
B:------------------|-----------------||
G:--2-2-2-2-2-2-2-2-|-2-2-2-2-2-------||
D:--2-2-2-2-2-2-2-2-|-2-2-2-2-2-5-5-5-||
A:--0-0-0-0-0-0-0-0-|-0-0-0-0-0-5-5-5-||
E:------------------|-----------3-3-3-||


The first guitar fill after the first chorus:

   |---|   |-|       |---|   |-|       |---|   |-|
e:------------------|-----------------|-----------------|
B:------1-1-----1-1-|-----1-1---------|-----1-1---3-3-5-|
G:------2-2---2-2-2-|-----2-2---5-5-5-|-----2-2---------|
D:--2-2-2-2-2-2-2-2-|-2-2-2-2-2-5-5-5-|-2-2-2-2-2-------|
A:--0-0-0-0-0-0-0-0-|-0-0-0-0-0-3-3-3-|-0-0-0-0-0-------|
E:------------------|-----------------|-----------------|


   ^   ^     ^    ^     ^     ^     ^           ^   ^   ^     ^
e:--------------------|-----------------------|-------------------|
B:---5----------------|-----------------------|-----------<7>---7-|
G:-----7---b(8)---5---|-----------------------|---------5-----5-5-|
D:------------------7-|-6/7-7-7-6/7-7-7-6/7-7-|-7-7-7-7-----------|
A:--------------------|-----------------------|-------------------|
E:--------------------|-----------------------|-------------------|
                                              

   ^     ^     ^   ^       ^   ^    ^   ^
e:---------------------|--------------------||
B:---------------------|--------------------||
G:-------------------5-|-b(6)--7b(8)----5---||
D:-6/7-7-7-6/7-7-7-7---|------------------7-||
A:---------------------|--------------------||
E:---------------------|--------------------||



The second guitar fill after the second chorus:

   |---|   |-|                         |---|   |-|
e:------------------|-----------------|-----------------|------------------|
B:------1-1---1-1-3-|---3-3-3-3-------|-----1-1---1-1-3-|---3-5------5-5-5-|
G:------2-2---2-2-2-|---2-2-2-2-5-5-5-|-----2-2---2-2-2-|---2--------------|
D:--2-2-2-2-2-2-2-2-|---2-2-2-2-5-5-5-|-2-2-2-2-2-2-2-2-|---2--------------|
A:--0-0-0-0-0-0-0-0-|---0-0-0-0-3-3-3-|-0-0-0-0-0-0-0-0-|---0--------------|
E:------------------|-----------------|-----------------|------------------|

                           ^   ^   ^   ^
e:-----0-0---0-0-2-|-(2)--------2-2-2-|-----------------|
B:-----1-1---1-1-1-|-(1)--------1-1-1-|-1-----------3---|
G:-----2-2---2-2---|------------2-2-2-|---------2-0-2---|
D:-2-2-2-2-2-2-2---|------------------|-----------------|
A:-0-0-0-0-0-0-0---|------------------|-----------------|
E:-----------------|------------------|-----------------|

                         
      ^    ^   ^
e:---------0-----------||
B:-3b(5)---------1-1-1-||
G:---------------0-0-0-||
D:---------------------||
A:---------------------||
E:---------------------||



end of the song:


e:------------------|-----------------|-----------------|-----------------|
B:------2-----3-----|-2-----0-----0-0-|-----2-----3---2-|-------0---0-0-0-|
G:--2-2-------------|-----------0-0-0-|-2-2-------------|-----------0-0-0-|
D:--2-2-------------|-----------0-0-0-|-2-2-------------|-----------0-0-0-|
A:--0-0-------------|-----------x-x-x-|-0-0-------------|-----------x-x-x-|
E:------------------|-----------3-3-3-|-----------------|-----------3-3-3-|


e:-----------------|-----------------|-----------------|-------0-------|
B:-----2-----3-----|-2-----0---------|-----2-----3-----|-2-----0-------|
G:-2-2-------------|-----------2-0-2-|-2-2-2---2-2-----|-2-----2-------|
D:-2-2-------------|-----------------|-2-2-----2-2-----|-2-----2-------|
A:-0-0-------------|-----------------|-0-0-----0-0-----|-0-----0-------|
E:-----------------|-----------------|-----------------|---------------|
Tap to rate this tab
# A B C D E F G H I J K L M N O P Q R S T U V W X Y Z