Song name
# A B C D E F G H I J K L M N O P Q R S T U V W X Y Z

Bikini Kill - Alien She tab

-------------------------------------------------------------------------------
			     Alien She - Bikini Kill
-------------------------------------------------------------------------------
Tabbed by: jasmean
Email: jasmin.rilke@rocketmail.com

Tuning: Standard

Intro/Veres:

e|---------------------------------------------------------------------------|
B|---------------------------------------------------------------------------|
G|-12------------------5-----------7-----------7------10101010---------------|
D|-12--121212121212----5--555555---7--777777---7--7---10101010---------------|
A|-10--121212121212----3--555555---5--777777---5--7---8-8-8-8----------------|
E|-----101010101010-------333333------555555------5--------------------------|

Chorus:

e|---------------------------------------------------------------------------|
B|---------------------------------------------------------------------------|
G|---------------------------------------------------------------------------|
D|--2------------------------------------------------------------------------|
A|--2-----------1h2-22---1h2-22----------------------------------------------|
E|--0--3-5-55----------------------------------------------------------------|

Bridge:

e|---------------------------------------------------------------------------|
B|---------------------------------------------------------------------------|
G|-7-77-777-7-77-777---9-99-999-9-99-999-------------------------------------|
D|-7-77-777-7-77-777---9-99-999-9-99-999-------------------------------------|
A|-5-55-555-5-55-555---7-77-777-7-77-777-------------------------------------|
E|---------------------------------------------------------------------------|

Ending:

e|---------------------------------------------------------------------------|
B|---------------------------------------------------------------------------|
G|-12----------------12----------------12---------------12r------------------|
D|-12--121212121212--12--121212121212--12--1212121212---12r------------------|
A|-10--121212121212--10--121212121212--10--1212121212---10r------------------|
E|-----101010101010------101010101010------1010101010------------------------|


| r  let ring
| h  hammer-on
===============================================================================
Tap to rate this tab
 
# A B C D E F G H I J K L M N O P Q R S T U V W X Y Z