Song name
# A B C D E F G H I J K L M N O P Q R S T U V W X Y Z

Bikini Kill - Hamster Baby tab

-------------------------------------------------------------------------------
			     Hamster baby - BIKINI KILL
-------------------------------------------------------------------------------
Tabbed by: Duane
Email: elsyckomaton@yahoo.com

Tuning:D G C F A D

D|------------------------------------------|
G|------------------------------------------|
C|------------------------------------------|
F|-------2-2-2------------------------------|
A|-0-0-0-------2-2-0-2-2--------------------|
D|------------------------------------------|

00:31
D|------------------------------------------|
G|------------------------------------------|
C|-66666666---66666666--9999----66666666----|
F|-66666666---66666666--9999-9--66666666----|
A|-44444444---44444444--7777-9--44444444----|
D|---------------------------7--------------|
00:47
D|------------------------------------------|
G|------------------------------------------|
C|------------------------------------------|
F|-------2-2-2------------------------------|
A|-0-0-0-------2-2-0-2-2--------------------|
D|------------------------------------------|
01:14
D|------------------------------------------|
G|------------------------------------------|
C|-66666666---66666666--9-9----66666666-----|
F|-66666666---66666666--9-9-9--66666666-----|
A|-44444444---44444444--7-7-9--44444444-----|
D|--------------------------7---------------|

01:24
D|------------------------------------------|
G|------------------------------------------|
C|------------------------------------------|
F|-------2-2-2------------------------------|
A|-0-0-0-------2-2-0-2-2--------------------|
D|------------------------------------------|

01:37
D|------------------------------------------|
G|------------------------------------------|
C|-66666666---66666666---66666666---6-5-4---|
F|-66666666---66666666---66666666---6-5-4---|
A|-44444444---44444444---44444444---4-3-2---|
D|------------------------------------------|

01:48
D|------------------------------------------|
G|------------------------------------------|
C|------------------------------------------|
F|-------2-2-2------------------------------|
A|-0-0-0-------2-2-0-2-2--------------------|
D|------------------------------------------|


| /  slide up
| \  slide down
| h  hammer-on
| p  pull-off
| ~  vibrato
| +  harmonic
| x  Mute note
===============================================================================
Tap to rate this tab
# A B C D E F G H I J K L M N O P Q R S T U V W X Y Z