Song name
# A B C D E F G H I J K L M N O P Q R S T U V W X Y Z

Bikini Kill - Jigsaw Youth tab

-------------------------------------------------------------------------------
			     Jigsaw youth - Bikini Kill
-------------------------------------------------------------------------------
Tabbed by:DuAnE
Email:Elsyckomaton@aol.com


00:00
D|--------------------------------------------------|
G|--------------------------------------------------|
C|-6666666666666666/11-11-11-9----------------------|
F|-6666666666666666/11-11-11-9----------------------|
A|-4444444444444444/-9--9--9-7----------------------|
D|--------------------------------------------------|

00:41

D|--------------------------------------------------|
G|--------------------------------------------------|
C|-5-5-5-5-5-5-6-6----------------------------------|
F|-5-5-5-5-5-5-6-6----------------------------------|
A|-3-3-3-3-3-3-4-4----------------------------------|
D|--------------------------------------------------|

00:52
D|--------------------------------------------------|
G|--------------------------------------------------|
C|-6666666666666666/11-11-11-9----------------------|
F|-6666666666666666/11-11-11-9----------------------|
A|-4444444444444444/-9--9--9-7----------------------|
D|--------------------------------------------------|


01:11

D|--------------------------------------------------|
G|--------------------------------------------------|
C|-5-5-5-5-5-5-6-6----------------------------------|
F|-5-5-5-5-5-5-6-6----------------------------------|
A|-3-3-3-3-3-3-4-4----------------------------------|
D|--------------------------------------------------|

01:22
D|--------------------------------------------------|
G|--------------------------------------------------|
C|-6666666666666666/11-11-11-9----------------------|
F|-6666666666666666/11-11-11-9----------------------|
A|-4444444444444444/-9--9--9-7----------------------|
D|--------------------------------------------------|

01:42
D|--------------------------------------------------|
G|--------------------------------------------------|
C|-5-5-5-5-5-5-6-6----------------------------------|
F|-5-5-5-5-5-5-6-6----------------------------------|
A|-3-3-3-3-3-3-4-4----------------------------------|
D|--------------------------------------------------|
Tap to rate this tab
 
# A B C D E F G H I J K L M N O P Q R S T U V W X Y Z