Song name
# A B C D E F G H I J K L M N O P Q R S T U V W X Y Z

Bikini Kill - Hamster Baby tab

Start with a few seconds of feedback

Main Riff:

E|--------------------------------------------|
B|--------------------------------------------|
G|--------------------------------------------|
D|--------------------------------------------|  About 8x
A|-----------5--5--5--------------------------|
E|--0--0--0-----------5--5--3--3--5--5--3--3--|


Chorus:                                             Moderately Fast

   B                    B                             D
E|-----               ------                      ----------|
B|-----               ------                      ----------|
G|-----               ------                      ------7---|
D|--9--   8x  Pause   -9----    8x Brief Pause    ------7---|  5x?
A|--9--               -9----                      ------5---|
E|--7--               -7----                      ----------|


E|-----
B|-----
G|-----
D|--9--     8x
A|--9--
E|--7--

E|-----------------|
B|-----------------|
G|-----------------|
D|--9--8--6--5--2--|
A|--9--8--6--5--2--|
E|--7--6--4--3--0--|


Main Riff:

E|--------------------------------------------|
B|--------------------------------------------|
G|--------------------------------------------|
D|--------------------------------------------|  About 8x
A|-----------5--5--5--------------------------|
E|--0--0--0-----------5--5--3--3--5--5--3--3--|


Lyrics:

hello hello hello hello hello hello hello
hello hello hello hello hello hello hello
where is our next show in Honolulu
where is our next show, in Honolulu
where is our next show in Honolulu
where is our next show in Honolulu
do we get to go there for free?
do we get to get in for free?
do we get to get in for free?
oh yes we do
but not with you
hello hello hello hello hello hello hello
hello hello hello hello hello hello hello
where is our next show in Honolulu
where is our next show, in Honolulu
where is our next show in Honolulu
where is our next show in Honolulu
do we get to go there for free?
do we get to get in for free?
do we get to get in for free?
oh yes we do
but not with you
oh Everett True
where are you?
who is gonna carry the tape deck?
who is gonna carry the bass amp?
who is gonna buy us a van?
it could be you
it could be you
it could be you
it will come true
oh
Tap to rate this tab
# A B C D E F G H I J K L M N O P Q R S T U V W X Y Z