Song name
# A B C D E F G H I J K L M N O P Q R S T U V W X Y Z

Bikini Kill - Reject All American tab

Bikini Kill -- "Reject All American"

Intro:
------------------|---------------------|
------------------|---------------------|
--4---4---4-4-4-4-|---7---11---11-11-11-|
--4---4---4-4-4-4-|---7---11---11-11-11-|
--2---2---2-2-2-2-|---5----9----9--9--9-|     
------------------|---------------------| x3  

------------------|-------------------------|
------------------|-------------------------|
--4-4-4-4-4-4-4-4-|--11-11-11-11-11-11-11-11|
--4-4-4-4-4-4-4-4-|--11-11-11-11-11-11-11-11|
--2-2-2-2-2-2-2-2-|--5--5--5--5--5--5--5--5-|
------------------|-------------------------|


Verse 1:
------------------|-----------------|
------------------|-----------------|
--9---9---x-9-9-9-|-------77--7-7-7-|     Regimented
--9---9---x-9-9-9-|--777--77--7-7-7-|     Designated
--7---7---x-7-7-7-|--777--55--5-5-5-|     Mass acceptance
------------------|--555------------| x4  Over rated

------------------|-----------------|
------------------|-----------------|
--9---9---x-9-9-9-|-----------------|     Apology
--9---9---x-9-9-9-|-------77--7-7-7-|     Salutations  “Listen”
--7---7---x-7-7-7-|---777-55--5-5-5-|     Teen anthem
------------------|---555-----------| x4  Obligation

------------------------|-----------------------|
-------------------------|-----------------------|
--12-12-12-12-----------|-----------------------|     If you work hard
--12-12-12-12---10---12-|---12---12-12-12-12-12-|     You'll succeed
--10-10-10-10---10---12-|---12---12-12-12-12-12-|     A starring role
-----------------8---10-|---10---10-10-10-10-10-| x4  On Nothing Incor-


Chorus:
------------------|-----------------|
------------------|-----------------|
--9---9---x-9-9-9-|-------77--7-7-7-|     por
--9---9---x-9-9-9-|--777--77--7-7-7-|    at
--7---7---x-7-7-7-|--777--55--5-5-5-|     ed
------------------|--555------------| x4  

------------------|-----------------|
------------------|-----------------|
--9---9---x-9-9-9-|-----------------|     All American  
--9---9---x-9-9-9-|-------77--7-7-7-|     All American  “Reject”
--7---7---x-7-7-7-|---777-55--5-5-5-|     All American  
------------------|---555-----------| x4  All American  


Bridge 1:
------------------------|-----------------------|
------------------------|-----------------------|
--12-12-12-12-----------|-----------------------|     He gets good grades
--12-12-12-12---10---12-|---12---12-12-12-12-12-|     Plays guitar
--10-10-10-10---10---12-|---12---12-12-12-12-12-|     He’s all the rage 
-----------------8---10-|---10---10-10-10-10-10-| x4  On Nothing Incor-

------------------|-----------------|
------------------|-----------------|
--9---9---x-9-9-9-|-------77--7-7-7-|     Incorporated
--9---9---x-9-9-9-|--777--77--7-7-7-|     Incorporated
--7---7---x-7-7-7-|--777--55--5-5-5-|     Incorporated
------------------|--555------------| x4  Incorporated
  

Bridge 2:
------------------|---------------------|
------------------|---------------------|
--4---4---4-4-4-4-|---7---11---11-11-11-|
--4---4---4-4-4-4-|---7---11---11-11-11-|
--2---2---2-2-2-2-|---5----9----9--9--9-|     
------------------|---------------------| x4

------------------------|-----------------------|
------------------------|-----------------------|
--12-12-12-12-----------|-----------------------|     He gets good grades
--12-12-12-12---10---12-|---12---12-12-12-12-12-|     He plays guitar
--10-10-10-10---10---12-|---12---12-12-12-12-12-|     Thinks he’s cool
-----------------8---10-|---10---10-10-10-10-10-| x4  But is really not~~~


Chorus:
------------------|-----------------|
------------------|-----------------|
--9---9---x-9-9-9-|-----------------|     (Reject)
--9---9---x-9-9-9-|-------77--7-7-7-|     Sportscar  “Reject”
--7---7---x-7-7-7-|--777--55--5-5-5-|     Mausoleum
------------------|--555------------| x4  Sportscar Mausoleum
 
------------------|-----------------|
------------------|-----------------|
--9---9---x-9-9-9-|-----------------|     All American
--9---9---x-9-9-9-|-------77--7-7-7-|     All American “Reject”
--7---7---x-7-7-7-|---777-55--5-5-5-|     All American
------------------|---555-----------| x4  All American 


End:
------------------|-------|
------------------|-------|
--4-4-4-4-4-4-4-4-|-9-----|
--4-4-4-4-4-4-4-4-|-9-----|
--2-2-2-2-2-2-2-2-|-7-----|
------------------|-------|
Tap to rate this tab
 
# A B C D E F G H I J K L M N O P Q R S T U V W X Y Z