Song name
# A B C D E F G H I J K L M N O P Q R S T U V W X Y Z

Bikini - Kozeli Helyeken tab

Tablature: Bikini - Közeli helyeken
Arrange: Mecc
Email: sleeperg9@gmail.com


Legend
================================================================================
h    =hammer on (ráütés)
p    =pull down (lehúzás)
3/5/3=csúsztatás (slide) 3-ról 5-re és vissza
<12> =üveghang (natural harmonics)
(12) =szellemhang (ghost note)
>>   =pengetővel csúsztatás
^    =bend (hajlítás)
~    =vibrato
================================================================================



Intro

	Em		D		Am		Em

E||0---0-------2---|-2-----2h3p2----|0---0---------0-|--0-------------|
H||0-----0-----3---|---3---------3--|1-----1-0h1p0-0-|----0---3-------|
G||0-------0---2---|-----2---------2|2-------------0-|------0---0-----|
D||2-----------0---|----------------|2-------------2-|------------2---|
A||2-----------0---|----------------|0-------------2-|--------------2-|
E||0-----------0---|----------------|0-------------0-|----------------|



Bridge

Fig1 (az elején)

	Em		D		Em	D	

E||0---0-------2---|----------3p2---|0---0-------2---|-2-----2h3p2----|
H||0-----0-----3---|-------------3--|0-----0-----3---|---3---------3--|
G||0-------0---2---|---------------2|0-------0---2---|-----2---------2|
D||2-----------0---|----------------|2-----------0---|----------------|
A||2-----------0---|----------------|2-----------0---|----------------|
E||0-----------0---|----------------|0-----------0---|----------------|


Fig2 (a dob belépése után)

	Em		D		Em	D	

E||0---0-------2---|--2------3p2----|0---0-------2---|-2-----2h3p2----|
H||0-----0-----3---|----3--------3--|0-----0-----3---|---3---------3--|
G||0-------0---2---|------2--------2|0-------0---2---|-----2---------2|
D||2-----------0---|----------------|2-----------0---|----------------|
A||2-----------0---|----------------|2-----------0---|----------------|
E||0-----------0---|----------------|0-----------0---|----------------|



Verse

	Em		D		Am		Em

E||------0-------0-|--2-----3p2-----|----------------|----------------|
H||--------0---0---|----3-------2---|------5-3p5h3---|------0-3/5-3---|
G||----0-----0-----|------2-------3-|----2--------2-4|----0---------0-|
D||--2-------------|0---------------|--2-------------|--2-----/(4)----|
A||2---------------|----------------|0---------------|2-------/(4)----|
E||----------------|----------------|----------------|----------------|

	C		D

E||------0-------0-|--2-----3p2-----|
H||----0---0---0---|----3-------3---|
G||--1-------1-----|------2-------2-|
D||----------------|0---------------|
A||/3--------------|----------------|
E||----------------|----------------|



Chorus

	C		D		Am		Em

E||------0-------0-|--2-----3p2-----|----------------|----------------|
H||----0---0---0---|----3-------3---|------5-3p5h3---|------0-3/5-3---|
G||--1-------1-----|------2-------2-|----2--------2-4|----0---------0-|
D||----------------|0---------------|--2-------------|--2-----/(4)----|
A||/3--------------|----------------|0---------------|2-------/(4)----|
E||----------------|----------------|----------------|----------------|


Az utolsó Em lehúzva nyerő


E||0---------------|    A 
H||0---------------|	|
G||0---------------|	|
D||2---------------|	|
A||2---------------|	|
E||0---------------|	|



A szintetizátoros rész akkordjai: Em Em9 Em7

Em:  022003
Em9: 022002
Em7: 022030


PreSzóló

E||----------------|----------------|----------------|----------------|
H||----------------|----------------|----------------|----------------|
G||----------------|----------------|----------------|----------------|
D||----------------|--------------7-|9-----7---------|---------------7|
A||7-----------9-10|9-----------10--|------------10-9|7-------7-9-10--|
E||----------------|----------------|----------------|----------------|

E||----------------|----------------|----------------|
H||----------------|----------------|----------------|
G||----------------|----------------|----------------|
D||------9-7h9p7---|7-------9---10-7|9~~~~~----------|
A||10-----------10-|----------------|----------------|
E||----------------|----------------|----------------|



Szóló

E||--------14-15-17|^17-^17-^17-17--15--|17~~~~----------|22^-22^-22^-22--19-22-19|
H||----------------|--------------------|----------------|------------------------|
G||----------------|--------------------|----------------|------------------------|
D||----------------|--------------------|----------------|------------------------|
A||>>--------------|--------------------|----------------|------------------------|
E||>>--------------|--------------------|----------------|------------------------|

E||~~~~----------------|--------------------|--------------------------|----------------|
H||--------------------|---------------12-13|--------------------------|----------------|
G||-----------11-12-14-|12-/9//12-14--------|14/-12-12/14-12h14p12/11--|----------------|
D||-------//14---------|--------------------|------------------------12|14~~~~----------|
A||--------------------|--------------------|--------------------------|----------->>---|
E||--------------------|--------------------|--------------------------|----------->>---|



A szóló utáni kórus alatt egész nyugodtan játszhatók az akkordok (C D Am Em), persze a másik
gitár még küldi a bontást.

Javaslat
--------
C:  335553	x355xx
D:  557775	x577xx
Am: 577555	577xxx
Em: 022000	022xxx


Tipp: Elektromos gitárral, torzítóval a második oszlopot kell játszani


Outro

E||-----14------<12>---|
H||<12>-----15---------|
G||--------------------|
D||--------------------|
A||--------------------|
E||--------------------|



Szóló var. (akusztikus gitárra)
			   				       
E||----------------|--------------------|----------------|-----------------------|
H||----------7-8-10|10/12~-12--10------8|8h10--7---------|13--13-h15-13--12h13p12|
G||------7-9-------|--------------------|---------7~~----|-----------------------|
D||7-9-10----------|--------------------|----------------|-----------------------|
A||----------------|--------------------|----------------|-----------------------|
E||----------------|--------------------|----------------|-----------------------|


							   /----ismételd---\
                                                           |ahányszor tudod|
E||------------------|--------------|-------------|------------------------------|
H||~~~~~~~~----------|--------------|-------------|------------------------------|
G||---------------11-|12~~-----14-12|11~~~--------|-----12--11h12p11h12p11-------|
D||----------//14----|--------------|-----------12|14~~~--------------------12/14|
A||------------------|--------------|-------------|------------------------------|
E||------------------|--------------|-------------|------------------------------|


Sorrend:
--------
Intro x2
Verse
Bridge Fig1
Verse
Bridge Fig1
Kórus x4
Szintetizátor x2
Verse
Bridge Fig2
Verse
Bridge Fig2
Kórus x4
PreSzóló
Szóló
Kórus x4
Kórus x2 (ének nélkül)
Outro
Tap to rate this tab
 
# A B C D E F G H I J K L M N O P Q R S T U V W X Y Z