Song name
# A B C D E F G H I J K L M N O P Q R S T U V W X Y Z

Bilal Khan - To Kia Hua tab

This is a brilliant song put together by Coke Studio in Pakistan, and since it doesn't
have any proper tabs online, I figured I should tab it out. I got the strumming chords
off of Bilal Khan's Facebook page, and most of the bridge from a comment on his page. 
The rest I tabbed out myself.

The song itself:
http://www.youtube.com/watch?v=cOfPDZSqXMk
The timing specified is relative to the video

There are two main guitars in the song, one which Bilal plays where he plays the
beginning notes,strumming, bridge and ending. The second guitarist plays some background notes
and the pre-bridge. I haven't figured out what he plays during the bridge though. I've 
seen a third guitarist in the video but I'm not sure what he plays.

Cappo on 3rd
Tabs are relative to Cappo


Tabs for Guitar 1(Bilal Khan):

From 0:06 to 0:17 he plays this:

Beginning:
|---------------|
|---------------|
|----9-7----9-7-|
|---------------|
|--7------------|
|--0---8--5---7-|

Then from 0:18 till 2:07 he plays these chords. He strums them in a specific pattern
which you'll have to listen to the song a couple times to figure out. Each chord isn't
played once, but a couple of times in alternate up and down strokes.

Strumming chords:

|--0---0---0---0-|
|--0---0---0---0-|
|--9---7---9---7-|
|--0---0---0---0-|
|--7---0---0---0-|
|--0---8---5---7-|


From 2:18 till 2:40 he plays the bridge 4 times, then goes back to strumming the chords.
I haven't figured out what he plays in the pre-bridge, the small part that comes before
the bridge.

Bridge(Downward strums):

|---------------------------|
|---------------------------|
|--7/9-9----2----7----7-----|
|---/---(x3)-(x4)-(x4)------|(x4)
|--5/7-7----3----8----------|
|---------------------7-----|

From 2:40 to 4:14, he does regular strumming. Then from 4:15 to 4:32, he plays the
ending notes, which are pretty much the same as the beginning.

Ending:
|----------------|
|----------------|
|----9-7-----9-7-|
|----------------|
|--7-------------|
|------8---5---7-|



Tabs for Guitar 2:

The second guitarist starts playing these notes at 0:18 till about 2:04

Second Guitar:
|--------------------------------|
|---8--8--7--7-------------------|
|---9--9--7--7----9--9---7--7--7-|
|-----------------9--9---5--0--4-|
|--7--7--------------------------|
|--------8--8---5--5---7--7--7---|

At 2:08, the guitarist begins the pre-bridge. He strums the first chord(G), then at 2:12
he strums the second chord(C), doing the hammer-on after, and at 2:15 he plays the last chord(Bm)

Pre-Bridge(chords + hammer-on):
   G C        Bm
|--3-3---------2-|
|--0-1---------3-|
|--0-----------4-|
|--0-2---------4-|
|--2-3-0h2-3---2-|
|--3-------------|

The he resumes playing the previous notes as Bilal resumes strumming. Basically,
whenever Bilal is strumming(except from 2:57 till 3:08), the second guitarist is always playing
his part alongside him.

I don't know what he plays during the bridge and well that's the whole song.
It's tricky to play, even when you have tabs, but with practice, it can be done.
Tap to rate this tab
# A B C D E F G H I J K L M N O P Q R S T U V W X Y Z