Song name
# A B C D E F G H I J K L M N O P Q R S T U V W X Y Z

Bill Bailey - Death Metal Lullaby tab

Song: Death Metal Lullaby
Artist: Bill Bailey
Album: Bewilderness


E|-----------------|------------------|-----------------|------------------|
B|-----------------|------------------|-----------------|------------------|
G|-----------------|------------------|-----------------|------------------|
D|--2--2-2-5--5-5--|--4-4-4-7--7-7-7--|--2--2-2-5--5-5--|--4-4-4-7--7-7-7--|
A|--2--2-2-5--5-5--|--4-4-4-7--7-7-7--|--2--2-2-5--5-5--|--4-4-4-7--7-7-7--|
E|--0--0-0-3--3-3--|--2-2-2-5--5-5-5--|--0--0-0-3--3-3--|--2-2-2-5--5-5-5--|
                                                                    

E|-----------------|------------------|-----------------|------------------|
B|-----------------|------------------|-----------------|------------------|
G|-----------------|------------------|-----------------|------------------|
D|--2--2-2-5--5-5--|--4-4-4-7--7-7-7--|--2--2-2-5--5-5--|--4-4-4-7--7-7-7--|
A|--2--2-2-5--5-5--|--4-4-4-7--7-7-7--|--2--2-2-5--5-5--|--4-4-4-7--7-7-7--|
E|--0--0-0-3--3-3--|--2-2-2-5--5-5-5--|--0--0-0-3--3-3--|--2-2-2-5--5-5-5--|
   

E|-----------------|------------------|-----------------|------------------|
B|-----------------|------------------|-----------------|------------------|
G|-----------------|------------------|-----------------|------------------|
D|--2--2-2-4-4--5--|----5--6---6------|--7--7--7-7--9---|------------------|
A|--2--2-2-4-4--5--|----5--6---6------|--7--7--7-7--9---|------------------|
E|--0--0-0-2-2--3--|----3--4---4------|--5--5--5-5--7---|------------------|
  

E|-----------------|------------------|-----------------|------------------|
B|-----------------|------------------|-----------------|------------------|
G|-----------------|------------------|-----------------|------------------|
D|-----2-2-2-5--7--|----7-7-7-7-7-7-7-|--X-X-2-2-2-5--7-|----7-7-7-7-7-7-7-|
A|-----2-2-2-5--7--|----7-7-7-7-7-7-7-|--X-X-2-2-2-5--7-|----7-7-7-7-7-7-7-|
E|-----0-0-0-3--5--|----5-5-5-5-5-5-5-|--X-X-0-0-0-3--5-|----5-5-5-5-5-5-5-|


E|-----------------|------------------|
B|-----------------|------------------|
G|-----------------|------------------|
D|--5--5--5-5-5-4--|------------------|
A|--5--5--5-5-5-4--|------------------|
E|--3--3--3-3-3-2--|------------------|


Lyrics:

I am Death,
A winged beast.
I am bourne on the velvet wings of Night,
And I'm hungry for a feast.
I am the nemesis of the Vole.
My heart is black as coal.
You can kill me with a trowl.
I am an Owl.
Tap to rate this tab
# A B C D E F G H I J K L M N O P Q R S T U V W X Y Z