Guitaretab - guitar tabs
Song name
# A B C D E F G H I J K L M N O P Q R S T U V W X Y Z

Bill Brown - Rainbow Six tab

E:-------------------------------|-----------------------------------------|
B:-------------------------------|-----------------------------------------|
G:-------------------------------|--3-5-3-5--3-5-3-6-3--3-5-3-5------------|
D:--3-5-3-5--3-5-3-6-5--3-5-3-5--|--3-5-3-5--3-5-3-6-3--3-5-3-5------------|
A:--3-5-3-5--3-5-3-6-5--3-5-3-5--|--1-3-1-3--1-3-1-4-1--1-3-1-3------------|
E:--1-3-1-3--1-3-1-4-3--1-3-1-3--|-----------------------------------------|
[ Tab from: http://www.guitaretab.com/b/bill-brown/89302.html ]
E:-------------------------------|-----------------------------------------|
B:-------------------------------|-----------------------------------------|
G:-------------------------------|--3-5-3-5--3-5-3-6-3--3-5-3-5------------|
D:--3-5-3-5--3-5-3-6-5--3-5-3-5--|--3-5-3-5--3-5-3-6-3--3-5-3-5------------|
A:--3-5-3-5--3-5-3-6-5--3-5-3-5--|--1-3-1-3--1-3-1-4-1--1-3-1-3------------|
E:--1-3-1-3--1-3-1-4-3--1-3-1-3--|-----------------------------------------|
[ Tab from: http://www.guitaretab.com/b/bill-brown/89302.html ]
When you are playing this song to get it to sound like the actual thing, slitely distort 
and wait about a second between each set.
Advertisement will be closed in 10 seconds