Song name
# A B C D E F G H I J K L M N O P Q R S T U V W X Y Z

Bill Callahan - Eid Ma Clack Shaw chords

Highlighted       Show chord diagrams
-------------------------------------------------------------------------------
			     Eid Ma Clack Shaw - Bill Callahan
-------------------------------------------------------------------------------
Tabbed by: Verlaine	
Email: vignira@hotmail.com

G#m

Working through death's pain


G#m                            F#
Last night I swear I felt your touch
G#m           F#                         G#m        F#
   Gentle and warm. The hair stood on my arms
G#m         F#
   How? 
G#m         F#
how?
G#m         F#
how?

G#m                                        riff 1
Show me the way, show me the way, show me the way
F#         G#  
To shake a memory    

G#m                                        riff 2
Show me the way, show me the way, show me the way
F#         G#  
To shake a memory                                                                     


 
  G#m                                F#                    G#m          F#
I flipped my forelock, I twitched my withers, I reared and bucked
G#                            C#m          riff 3
     I could not put my rider aground
G#                                         C#m            riff 3
    All these fine memories are fuckin' me down


  G#m                                  F#
I dreamed it was a dream that you were gone
  G#m                          F#
I woke up feeling so ripped by reality


G#m                     F#
Love is the king of the beasts
G#m                             F#
And when it gets hungry it must kill to eat
G#m                     F#
Love is the king of the beasts
G#m            F#
A lion walking down city streets

G#m   F#


  G#m                   F# 
I fell back asleep some time later on
G#                             C#m       riff 3
     And I dreamed the perfect song
G#                                 C#m              riff 3
     It held all the answers, like hands laid on


  G#m                           F#
I woke halfway and scribbled it down
   G#m                            F#
And in the morning what I wrote I read
       G#m                       F#                    riff 4
It was hard to read at first but here's what it said

G#m


G#m 
Eid ma clack shaw
G
Zupoven del ba
G#m
Mertepy ven seinur
G
Cofally ragdah

                                    
Show me the way, show me the way, show me the way
To shake a memory                                      x2 


Eid ma clack shaw
Zupoven del ba
Mertepy ven seinur
Cofally ragdah




Riff 1

e|---------------------11~--|
B|--/12--9------9br---------|
G|----------11--------------|
D|--------------------------|
A|--------------------------|
E|--------------------------|

Riff 2

e|--------------------------|
B|--/12--9------9br---------|
G|----------11---------8~---|
D|--------------------------|
A|--------------------------|
E|--------------------------|

Riff 3

e|--------------------------|
B|---11b--11~---9~----------|
G|--------------------------|
D|--------------------------|
A|--------------------------|
E|--------------------------|

Riff 4
e|--------------------------|
B|--------------------------|
G|--------------------------|
D|---6b---------------------|
A|--------------------------|
E|--------------------------|


************************************

| /   slide up
| \   slide down
| h   hammer-on
| p   pull-off
| ~   vibrato
| +   harmonic
| x   Mute note
| b   Bend
| pb  Pre-bend
| br  Bend release
| pbr Pre-bend release
| brb Bend release bend

************************************
Tap to rate this tab
# A B C D E F G H I J K L M N O P Q R S T U V W X Y Z