Song name
# A B C D E F G H I J K L M N O P Q R S T U V W X Y Z

Bill Callahan - Jim Cain tab

Song: "Jim Cain"
Artist: Bill Callahan
Album: Sometimes I Wish We Were An Eagle (2009)

Open D tuning

Main Riff:
D|---0----0------0----0------0----0------0----0--------|
A|-----0----0------0----0------0----0------0----0------|
F#--8----8----8/7----7----7/5----5----5/3----3----3\8--|
D|-----------------------------------------------------|
A|-----------------------------------------------------|
D|-----------------------------------------------------|

Bridge Part:
      Em                   D
D|-----------        D|-----------|
A|--------2--        A|--------0--|
F#----1------        F#----0------|
D|--2---2---- x4     D|--0---0----| x4
A|-----------        A|-----------|
D|-----------  then  D|-----------|

End on D:

D|--0--|
A|--0--|
F#--0--|
D|--0--|
A|--0--|
D|--0--|
Tap to rate this tab
 
# A B C D E F G H I J K L M N O P Q R S T U V W X Y Z