Song name
# A B C D E F G H I J K L M N O P Q R S T U V W X Y Z

Bill Callahan - The Wind And The Dove tab

Bill usually tunes his guitar 
down one whole step (D G C F A d) and uses a 
Capo on the 5th fret

but you can certainly use 
Standard tuning (E A D G B e) with a 
Capo on the 3rd fret

(all chords relative to capo)

Tab by Maceo: mace0.miller@yahoo.com
__________________________________________

8 x intro riff
Oooooooooooooooh oooohh ooooh (4x)

||:

1 x verse riff

verse : 2 x verse riff
Somewhere between the wind and the dove
Lies all I sought/lost in you
And when the wind just dies, when the wind just dies
And the dove won't rise
1 x riff A
From your window sill

chorus: 4 x chorus riff
Well I cannot tell you
Which way it would be
If it was this way too
For the wind and the dove
1 x riff B
For the wind and the dove

2 x riff C
Ooh ooh oooohh ooooh (2x)

bridge:  1 x bridge riff
And I am a child of linger on
I peer through the window gone
1 x intro riff

1 x bridge riff
I am a child of linger on
I peer through the window gone 
1 x intro riff

:||

8 x intro riff
Oooooooooooooooh oooohh ooooh (4x)
1 x intro riff (without the last note)

end
__________________________________________


intro riff:
|-----------------------------------|
|-----------------------------------|
|--------0-------0-------0-------0--|
|------2-------2-------2-------2----| 
|----2-------2-------2-------2------| 
|--0-------0-------0-------0--------|
   

verse riff:
||---------------------------------||
||---------------------------------|| 
||:------0-------0-------0-------0:|| 
||:----2-------2-------2-------2--:||
||---4-------4-------3-------3-----|| 
||-0-------0-------0-------0-------||

|-----------------------------------|
|-----------------------------------|
|--------0-------0-------0-------0--|
|------4-------4-------4-------4----| 
|----2-------2-------2-------2------| 
|--0-------0-------0-------0--------|


riff A:
|-----------------------------------|
|-----------------------------------|
|--------0-------0-------0-------0--|
|------4-------4-------4-------4----| 
|----2-------2-------2-------2------| 
|--0-------0-------0-------0--------|


chorus riff:
|-----------------------------------|
|-----------------------------------| 
|--------0-------0-------0-------0--| 
|------0-------0-------0-------0----| 
|----2-------2-------3-------3------| 
|--3-------3-------5-------5--------|


riff B:
|-------------------|
|-------------------| 
|--------0-------0--| 
|------0-------0----|
|----2-------2------| 
|--3-------3--------|


riff C:
|-----------------------------------|
|-----------------------------------|
|------0-------0-------0-------0----| 
|----3---3---3---3---3---3---3---3--| 
|--5-------5-------4-------4--------| 
|-----------------------------------|


bridge riff:
|----------0---------------0--------|
|--------1---1-----------1---1------|
|------2-------2-------2-------2----| 
|----2-----------2---0-----------0--| 
|--0---------------0----------------| 
|-----------------------------------|

|----------3---------------0--------|
|------------0-----------1---1------|
|--------0-----0-------2-------2----|
|------0---------0---2-----------2--|
|----2-------------0----------------|
|--3--------------------------------|

|----------0---------------0--------|
|--------1---1-----------1---1------|
|------2-------2-------2-------2----| 
|----2-----------2---0-----------0--| 
|--0---------------0----------------| 
|-----------------------------------|
Tap to rate this tab
# A B C D E F G H I J K L M N O P Q R S T U V W X Y Z