Guitaretab - guitar tabs
Song name
# A B C D E F G H I J K L M N O P Q R S T U V W X Y Z

Bill Conti - Gonna Fly Now tab

--------------------------------------------3-|
-1-1--1-1-1--1-1--5--1-1-1--5-5--5-5-5--5-5---|
----------------------------------------------|
----------------------------------------------|
----------------------------------------------|
----------------------------------------------|


3----------------------------------------------|
--5-5-5----------------------------------------|
---------4--4-4-4--4-4--4-4-------4-4-4-4--4~--|
-----------------------------------------------|
-----------------------------------------------|
----------------------------1-0~---------------|

[ Tab from: http://www.guitaretab.com/b/bill-conti/181613.html ]
---O-3-5~--5-7-O~-------O-3-5~--5-7-0~------|
--------------------------------------------|
--------------------------------------------|
--------------------------------------------|
--------------------------------------------|
--------------------------------------------|

5-3-5-3-5-7~----3-3-3-1-1-0-0---6-5~-----------|
-----------------------------------------------|
-----------------------------------------------|   Last two sections x 2
-----------------------------------------------|
-----------------------------------------------|
-----------------------------------------------|
Related for Gonna Fly Now tab