Song name
# A B C D E F G H I J K L M N O P Q R S T U V W X Y Z

Bill Conti - Gonna Fly Now tab

The others intro's have a little error,and i decided to fix them
|----------------------------------------------------------------|
|--------------------------------------------------------8-------|
|-------------------------9--------------9-9--9-9-9--9-9---9-9-9-|
|-10--10--10-10-10--10-10---10-10-10-----------------------------|
|----------------------------------------------------------------|
|----------------------------------------------------------------|

|---------------------------|
|---------------------------|
|-7--7-7-7--7-9-9-7---------|
|--------------------10-9---|
|---------------------------|
|---------------------------|

|----------------------------------------------------------------|
|-----------------16---------------------------16----------------|
|----12--14----14-----------------12--14----14-------------------|
|-14-----------------14--------14-------------------14-----------|
|----------------------------------------------------------------|
|----------------------------------------------------------------|

|------------------------------------------------------|
|------------------------------------------------------|
|------------------9-9---------------------------------|
|-12-10-12---10-12--------10-10-9--9------------10--9--|
|------------------------------------12-12-10----------|
|------------------------------------------------------|

|----------------------------------------------------------------|
|-----------------16---------------------------16----------------|
|----12--14----14-----------------12--14----14-------------------|
|-14-----------------14--------14-------------------14-----------|
|----------------------------------------------------------------|
|----------------------------------------------------------------|

|-------------------------------------------------13--12-|
|-------------------------13-13-12--12-------------------|
|------------------9-9-----------------14-14-12----------|
|-12-10-12---10-12---------------------------------------|
|--------------------------------------------------------|
|--------------------------------------------------------|

Tap to rate this tab
# A B C D E F G H I J K L M N O P Q R S T U V W X Y Z