Bill Conti - Gonna Fly Now tab

-------------------------------------------------------------------------------
			     SONG NAME -Gonna Fly Now Band Name- Bill Conti
-------------------------------------------------------------------------------
Tabbed by:Jared Carr



e|------------0-------0-0-0-0-0-0-0-3-0-0--0-0-0-0-0-0-0-0-----0-0-0-0-------|
B|--1-1-1-1-1---1-1-1-1-1-1-1-1-1-1-1-1-1--0-0-0-0-0-0-0-0-----0-0-0-0-------|
G|---------------------------------------------------------------------------|
D|---------------------------------------------------------------------------|
A|---------------------------------------------------------------------------|
E|---------------------------------------------------------1-0---------------|

e|-0-3-5-5-7-0-0-3-5-5-7-0----------0--------------1-0-----------------------|
B|-------------------------3-1-3-1-3-1-1-0-0---------------------------------|
G|-------------------------------------------2-2-0---------------------------|
D|---------------------------------------------------------------------------|
A|---------------------------------------------------------------------------|
E|---------------------------------------------------------------------------|

e|-0-3-5-5-7-0-0-3-5-5-7-0----------0--------------1-0-----------------------|
B|-------------------------3-1-3-1-3-1-1-0-0---------------------------------|
G|-------------------------------------------2-2-0---------------------------|
D|---------------------------------------------------------------------------|
A|---------------------------------------------------------------------------|
E|---------------------------------------------------------------------------|

e|-0-3-5-5-7-0-0-3-5-5-7-0-0-3-5---s-o-l-o--0-3-5-5-7-0-0-3-5-5-7-0--------- |
B|------------------------------------------------------------------3-1-3-1-3|
G|---------------------------------------------------------------------------|
D|---------------------------------------------------------------------------|
A|---------------------------------------------------------------------------|
E|---------------------------------------------------------------------------|

e|-0-------------1-0--0-3-5-5-3-0-0-3-5--------------------------------------|
B|-1-1-0-0-------------------------------3-1-3-1-3-3-3-3-3-1-0-1-0-1-1-1-1-1-|
G|---------2-2-0-------------------------------------------------------------|
D|---------------------------------------------------------------------------|
A|---------------------------------------------------------------------------|
E|---------------------------------------------------------------------------|

e|---------------------------------------------------------------------------|
B|-3-1-3-1-3-3-3-3-3--1-0-1-0-1-1-1-1-1--3-1-3-1-3-3-3-3-3--0-3-5-5-7-0-0-3-5|
G|---------------------------------------------------------------------------|
D|---------------------------------------------------------------------------|
A|---------------------------------------------------------------------------|
E|---------------------------------------------------------------------------|

e|-5-3-0-0-3-5-7-12-0-3-5----------------------------------------------------|
B|---------------------------------------------------------------------------|
G|---------------------------------------------------------------------------|
D|---------------------------------------------------------------------------|
A|---------------------------------------------------------------------------|
E|---------------------------------------------------------------------------|

This was my first song to tab out.  I hope you enjoy the song as much as I do.  Thank 
you for choosing this tab to play.
Tap to rate this tab
 
# A B C D E F G H I J K L M N O P Q R S T U V W X Y Z