Bill Fox - Junked Lot Serenade tab

-----------------------------------------------------------------------------
			     Junked Lot Serenade - Bill Fox
-----------------------------------------------------------------------------
Tabbed by: Jeff

The pitch on his recording is about 30 cents flat, so tune your guitar 30 flat to match 
likewise raise the recording 30 cents sharp

Capo on 3rd fret

Verse:

e|---0-------0-------0------0-------0----------------------------------------|
B|----------------0------------------------0---------4---------0-------------|
G|-1--------------1----1--1---1------------3---------4---------3-------------|
D|-2----2--2---2--2----2--2---2--2-------2---2----2----2----3----3-----------|
A|-2----2--2---2--0----0--0---0--2----4--------------------------------------|
E|-0----0--0---0-----------------0--------------4---------3------------------|


e|-------0--------0-------------0-------0-------------------------------------|
B|-----0---0---0----0---------0---0---0---0-----------------------------------|
G|-----------1----------------------2-----------------------------------------|
D|----------------------------------------------------------------------------|
A|----------------------------------------------------------------------------|
E|--4------------------4---2--------------------------------------------------|

          E                        Amaj7no3               E       Amaj7no3
There's a restless wind and you're callin out here in the night
          E                 Amaj7no3                  B5   B5/A "/G# "/F#
With your violets waving so softly 'round here in the light
        E                 Amaj7no3                 E       Amaj7no3
And the trees shake their leaves with thousands to spend
I've been a long time gone darlin' baby how have you been?

I've had my heart stretched out like a tarp in a transfusion sky
Where bewildered lips of mad ghost children sigh
And the stars form their tragedies at ten
I would never have believed darlin' you'd ever come back here again

Well I just came from the valley where ten thousand brass?? low
To steal and set a fire from the shadow of a crow
But do your petals open up to the wind?
I've been a long time comin' I wanna kiss you once again

Well I suppose I should   give you shelter from this smoke
If you can and you're careful to watch how you joke
Then I would gladly lend my leer for a song
As the night gets so silent and long

And if you wake me 'fore you leave once again
That I do believe me darlin' that I might let you in

(to be updated...)

************************************

| /   slide up
| \   slide down
| h   hammer-on
| p   pull-off
| ~   vibrato
| +   harmonic
| x   Mute note
| b   Bend
| pb  Pre-bend
| br  Bend release
| pbr Pre-bend release
| brb Bend release bend

************************************
Tap to rate this tab
 
# A B C D E F G H I J K L M N O P Q R S T U V W X Y Z