Bill Frisell - Go West tab

------------------------------------------------------------------------------- 
			                         Go West! - Bil Frisell
-------------------------------------------------------------------------------
Tabbed by:afterthewar
Email:e1005515g@gmail.com

Tuning:Standard

Bill Frisell's website-http://www.billfrisell.com/

Bill Frisell is one of my favorite guitarists ever, so I was disappointed to
 not find any of his songs tabbed out. I figured that I could do it as well 
as anyone else, so here's "Go West!" from the album "Go West-Music for the 
Films of Buster Keaton". Its a pretty short song, but its still fun to play 
and it sounds great. To get Bill Frisell's tone, give your guitar alot of 
reverb and use a volume pedal to get that fading sound. The time of the tab 
isn't exact but I think the rest of it is about 99% correct. I'll have more 
Bill Frisell tabs up soon (whether anyone reads this or not). The next one 
will probably be Frisell's most famous song, a cover of Have A Little Faith
in Me originally by John Hiatt.

e|---------------------------------------------------------------------------|
B|--------------6s8-----6s8s6---5-------------------------0----3----5--------|
G|---------5----7s9-----7s9s7---5----------------------0------------4--------|
D|------------------------------------3---1---------2---------------5--------|
A|--5---7----------------------------------------0---------------------------|
E|---------------------------------------------------------------------------|

e|---------------------------------------------------------------------------|
B|--------7------3--------------------5^------------s8-8-7-6-----------------|
G|--7------------1----5----5--5--4----5^------------s9-9-8-7----7^9^7---5----|
D|-----5--------------7----5--5--5----5^---------5---------------------------|
A|---------------------------------------------------------------------------|
E|---------------------------------------------------------------------------|

e|---3^------8---------------------------------------------------------------|
B|---3^------8---------------------------------------------------------------|
G|---4^------9--------4---5-5--4--5------------------------------------------|
D|--------------------5---5-5--5--5------------------------------------------|
A|--------------------------------3------------------------------------------|
E|---------------------------------------------------------------------------|

************************************

| s   slide 
| h   hammer-on
| p   pull-off
| ~   vibrato
| +   harmonic
| x   Mute note
| ^   Bend
| pb  Pre-bend
| br  Bend release
| pbr Pre-bend release
| brb Bend release bend
Tap to rate this tab
 
# A B C D E F G H I J K L M N O P Q R S T U V W X Y Z