Guitaretab - guitar tabs
Song name
# A B C D E F G H I J K L M N O P Q R S T U V W X Y Z

Bill Haley And The Comets - See You Later Alligator tab

Highlighted       Show chord diagrams
SEE YOU LATER ALLIGATOR
DR. FEELGOOD (GUIDRY)

Intro: B A E E  B A E E

Verse 1:
N.C.               E
When I saw my baby walking 
with another man today
                   A
When I saw my baby walking 
                 E
with another man today
                            B
When I asked her whatís the matter, 
                         E
this is what I heard her say:

Chorus:
N,C,              E
See you later alligator, 
in a while crocodile
                  A
See you later alligator, 
                 E
after while crocodile
                           B
Canít you see youíre in my way now
                            E
Donít you know you cramp my style

Verse 2:
N.C.                     E
When I pondered what she told me, 
nearly made me lose my head
                         A
When I pondered what she told me, 
                       E
nearly made me lose my head
                         B
But the next time that I saw her 
                         E
reminded her of what she said
 
Repeat chorus:
N.C.              E
See you later alligator, 
after while crocodile
                  A
See you later alligator, 
                 E
after while crocodile
                           B
Canít you see youíre in my way now
                            E
Donít you know you cramp my style

Solo (2x verse chords)

Verse 3:
N.C.                       E
She said, Iím sorry pretty daddy, 
you knew my love is just for you
                           A
She said, Iím sorry pretty daddy, 
                             E
you knew my love is just for you
                          B
Wonít you say that youíll forgive me 
                            E
and say your love for me is true
[ Tab from: http://www.guitaretab.com/b/bill-haley-and-the-comets/125404.html ]
Verse 4:
N.C.                  E
I said, wait a minute gator, 
I know you meant it just for play
                      A
I said, wait a minute gator, 
                             E
I know you meant it just for play
                          B
Donít you know you really hurt me, 
                       E
this is what I have to say
 
Repeat chorus:
N.C.              E
See you later alligator, 
after while crocodile
                  A
See you later alligator, 
                 E
after while crocodile
                           B
Canít you see youíre in my way now
                            E
Donít you know you cramp my style

Repeat chorus:
N.C.              E
See you later alligator (see you later alligator)
after while crocodile (after while crocodile)
                  A
See you later alligator (see you later alligator)
                 E
after while crocodile (after while crocodile)
                           B
Canít you see youíre in my way now 
(Canít you see youíre in my way now)
                            E
Donít you know you cramp my style
(Donít you know you cramp my style)

Repeat chorus (fade):
N.C.              E
See you later alligator (see you later alligator)
after while crocodile (after while crocodile)
                  A
See you later alligator (see you later alligator)
                 E
after while crocodile (after while crocodile)
                           B
Canít you see youíre in my way now 
(Canít you see youíre in my way now)
                            E
Donít you know you cramp my style
(Donít you know you cramp my style)

-----------------------

Intro: B A E E  B A E E

E||--7--7--7--7--7--------|--5--5--5--5--5--------|
B||--7--7--7--7--7--------|--5--5--5--5--5--------|
G||--8--8--8--8--8--------|--6--6--6--6--6--------|
D||--9--9--9--9--9--------|--7--7--7--7--7--------|
A||--9--9--9--9--9--------|--7--7--7--7--7--------|
E||--7--7--7--7--7--------|--5--5--5--5--5--------|


--7--7--7--7--7--7--7--7--|--7----------------|
--9--9--9--9--9--9--9--9--|--9----------------|
--9--9--9--9--9--9--9--9--|--9----------------|
--9--9--9--9--9--9--9--9--|--9----------------|
--7--7--7--7--7--7--7--7--|--7----------------|
--7--7--7--7--7--7--7--7--|--7----------------|


--7--7--7--7--7--------|--5--5--5--5--5--------|
--7--7--7--7--7--------|--5--5--5--5--5--------|
--8--8--8--8--8--------|--6--6--6--6--6--------|
--9--9--9--9--9--------|--7--7--7--7--7--------|
--9--9--9--9--9--------|--7--7--7--7--7--------|
--7--7--7--7--7--------|--5--5--5--5--5--------|


--7----7----7----7----|--7----------------||
--9----9----9----9----|--9----------------||
--9----9----9----9----|--9----------------||
--9----9----9----9----|--9----------------||
--7----7----7----7----|--7----------------||
--7----7----7----7----|--7----------------||


Chords in the rest of the song follow the basic rock rhythm with the following sequence: 
E5 E5 E6 E5 E5 E5 E6 E5

Related for See You Later Alligator tab
See You Later Alligator chords by Bill Haley And The Comets