Bill Haley And The Comets - See You Later Alligator tab

Mabye theese tabs works for the whole song, but what I know they are for the chorus.
But they are very simple and great for beginners to learn!

e---3---3---3---0--------------|
B-------------3---0---3---3----|
G------------------------------|   x2
D------------------------------|
A------------------------------|
E------------------------------|


e---7---7---7---3---3---0---3---3-|
B---------------------------------|
G---------------------------------|
D---------------------------------|
A---------------------------------|
E---------------------------------|


e---3---3---3---0--------------|
B-------------3---0---3---3----|
G------------------------------|   x2
D------------------------------|
A------------------------------|
E------------------------------|


e---0---3---3---0---3---3---|
B-------------3-------------|
G---------------------------|
D---------------------------|
A---------------------------|
E---------------------------|

And that's it! Enjoy!


Made by Jonathan
Tap to rate this tab
 
# A B C D E F G H I J K L M N O P Q R S T U V W X Y Z