Song name
# A B C D E F G H I J K L M N O P Q R S T U V W X Y Z

Bill Miller - Raven In The Snow tab

This is one of my cousin's songs that I recently figured out, so here it is.

clean electric

e----------------------|
b----------------------|
d--/7-7-7-7-7-7-7-7----| X2
g--/7-7-7-7-7-7-7-7----|
a--/5-5-5-5-5-5-5-5----|
E----------------------|


e----------------------------------------|
b----------------------------------------|
d-5-5-5-5-5-5-5-5------------------------|
g-5-5-5-5-5-5-5-5-5-5-5-5-3-3-3-3--------|
a-3-3-3-3-3-3-3-3-5-5-5-5-3-3-3-3--------|
E-----------------3-3-3-3-1-1-1-1--------|

http://www.billmiller.net/
Tap to rate this tab
 
# A B C D E F G H I J K L M N O P Q R S T U V W X Y Z