Song name
# A B C D E F G H I J K L M N O P Q R S T U V W X Y Z

Bill Monroe - Ole Joe Clark tab

e-------0-1-3-1-0-------------0-1-3-1-0---------|
B-0-1-3-----------3-1-0-0-1-3-----------3-3-3-3-|
G-----------------------------------------------|
D-----------------------------------------------|
A-----------------------------------------------|
E-----------------------------------------------|

e-------0-1-3-1-0-----------------------------------|
B-0-1-3-----------3-1-0-----------------------------|
G-----------------------0-2-4-2-0-4-2-0---2-0-0-0-0-|
D---------------------------------------4-----------|
A---------------------------------------------------|
E---------------------------------------------------|

                                     F F
e-----------------------------------    -----------|
B---------------3-1-0---------------    -----------|
G-------------0-------------------0-    -----------|
D-0-2/5-5-5-5---------0-2/5-5-5-5---    -----------|
A-----------------------------------    -----------|
E-----------------------------------    -----------|

e--------------------------------------------------|
B-------------3-1-0--------------------------------|
G-----------0-------0-2-4-2-0-4-2-0---2-0-0-0-0----|
D-3/5-5-5-5-------------------------4--------------|
A--------------------------------------------------|
E--------------------------------------------------|


 ****I think this is it****
Tap to rate this tab
# A B C D E F G H I J K L M N O P Q R S T U V W X Y Z