Song name
# A B C D E F G H I J K L M N O P Q R S T U V W X Y Z

Bill Monroe - Big Sandy River tab

Bill Monroe - Big Sandy River
Standard Tuning
Capo 2

Order: P1 + P1 Ending 1
       P1 + P1 Ending 2
       P2 + P2 Ending 1
       P2 + P2 Ending 2 

Last 2 Notes of Ending 1 (Both) are lead notes for when you repeat the part a 2nd time.    

P1:
|--0-2-3---------0----------------------------------------0-2----|
|--------0-1-2-3---3-1-0-------------------------------3---------|
|------------------------2-0---------0-2-0-----------2-----------|
|----------------------------2-0-2-4-------4-2-0-2-4-------------|
|----------------------------------------------------------------|
|----------------------------------------------------------------|

                                                    |P1 Ending 1 |         
|--0-2-3---------0-|-----------------|--------------|--------0-2-|
|--------0-1-2-3---|-3-1-0-----------|--------------|------------|
|------------------|-------2-0-------|---0-2-0---2--|0-0-0-0-----|
|------------------|-----------2-0-2-|-4-------4----|------------|
|------------------|-----------------|--------------|------------|
|------------------|-----------------|--------------|------------|
                                                   
                                                    |P1 Ending 2 | 
                                                    |------------|
                                                    |0-0-0-0-----| 
                                                    |------------|
                                                    |------------|
                                                    |--------0-2-|
                                                    |------------|   
P2:                                                   
|----------------------------------------------------------------------|
|----------------------------------------------------------------------|
|--------------------------------------------0-2-0---2-0-----0---------|
|----------------------------0-2-0---2-0-2-4-------4-----2-0---2-0-----|
|------------0-2---0-2-3-2-3-------3-------------------------------2-0-|
|------3-2-3-----3-----------------------------------------------------|

                                                           |P2 Ending 1| 
|----------------------|-----------------|-----------------|-----------|
|----------------------|-----------------|-----------------|-----------|
|----------------------|-----------------|-------0-2-0---2-|0-0-0-0----|
|----------------------|-------0-2-0---2-|-0-2-4-------4---|-----------|
|------------0-2---0-2-|-3-2-3-------3---|-----------------|--------2-0|
|------3-2-3-----3-----|-----------------|-----------------|-----------|

                                                           |P2 Ending 1| 
                                                           |-----------|
                                                           |-----------|
                                                           |0-0-0-0----| 
                                                           |-----------|
                                                           |-----------|
                                                           |-----------|
Tap to rate this tab
# A B C D E F G H I J K L M N O P Q R S T U V W X Y Z